Black Crowes - Lickin Chords & Tabs

 

Lickin Chords & Tabs

Black Crowes Chords & Tabs

Version: 1 Type: Bass Tab 0 ratings
1 star 2 stars 3 stars 4 stars 5 stars
comments

Lickin Bass Tab

song: Lickin'
artist: Black Crowes
album: Lions
transcribed by: Jon "Mr.Big" Makokis
corrections & comments: metallikop25@hotmail.com
 
intro:x1(0:08)
G|--------------------------------------------|
D|--------------------------------------------|
A|--------0h1h2---------------0h2p0-2b3-0-----|
E|--0h1h2-------0-0-2---0h1h2-------------22--|
 
verse:(play each one once) he plays a different one each time
G|-----------------------------------------------|
D|--------------------4-4------------------------|
A|--------0h1h2------------------0h2p0-2b3-0-----|
E|--0h1h2-------0-0-2------0h1h2-------------22--|
 
G|--------------------------------------------|
D|--------------------------------------------|
A|--------0h1h2---------------0h2p0-2b3-0-----|
E|--0h1h2-------0-0-2---0h1h2-------------22--|
 
G|--------------------------------------------------|
D|---------------------------------------------4-4--|
A|--------0h1h2-----------------0h2p0-2b3-0---------|
E|--0h1h2-------0-0-2-22--0h1h2-------------22------|
 
G|-----------------------------------------------|
D|-----------------------------------------------|
A|--------0h1h2---------------0h2p0-2b3-0--------|
E|--0h1h2-------0-0-2---0h1h2-------------22~~~--|
 
chorus:x7        
G|-------------|-----|
D|-------------|-----|
A|-------------|-----|
E|--2~h4-4-44--|--2--| end(into verse)
 
verse:
G|------------------------------------------------|
D|------------------------------------------------|
A|--------0h1h2-------------------0h2p0-2b3-0-----|
E|--0h1h2-------0-0-2--0-22-0h1h2-------------22--|
 
G|--------------------------------------------|
D|--------------------------------------------|
A|--------0h1h2---------------0h2p0-2b3-0-----|
E|--0h1h2-------0-0-2---0h1h2-------------22--|
 
G|------------------------------------------------|
D|------------------------------------------------|
A|--------0h1h2-------------------0h2p0-2b3-0-----|
E|--0h1h2-------0-0-2--0-22-0h1h2-------------22--|
 
G|--------2h3h4------------------2h4p2-4b5-2--------|
D|--2h3h4-------2-2-4------2h3h4-------------44~~~--|
A|--------------------------------------------------|
E|--------------------2-22--------------------------|
 
chorus:x6 
G|-------------|
D|-------------|
A|-------------|
E|--2~h4-4-44--|
 
     x1(1:47)           x3(can use variations)      x1(2:00)
G|------------------|---------------------------|---------------------------|
D|------------------|---------------------------|---------------------------|
A|----------2-3-44--|--4-4-4-2~-1---1---2-4~-2--|--4-4-4-2~-1------1---1----|
E|--2~h4-44---------|-------------2---2---------|-------------2222---2---2--|
 
solo:(play all of these once)
G|---------------------|
D|---------------------|
A|--22222---0-0000000--|
E|--------2------------|
 
G|------------------------|
D|------------------------|
A|--2-0-2-0~---0-0000000--|
E|-----------2------------|
 
G|------------------------|
D|------------------------|
A|--2-0-2------0-0000000--|
E|--------2--2------------|
 
G|----------------|
D|----------------|
A|--2-0-2-0~---0--|
E|-----------2----|
 
verse:
G|------------------------------------------------| 
D|-------------------------------------------4-4--|
A|--------0h1h2--------------0h2p0-2b3-0----------|
E|--0h1h2-------0-0-2---0h1h2-------------22------|
 
G|-----------------------------------------------|
D|-----------------------------------------------|
A|--------0h1h2---------------0h2p0-2b3-0--------|
E|--0h1h2-------0-0-2---0h1h2-------------22~~~--|
 
chorus:x8
 
chorus2:x4
G|-------------|
D|-------------|
A|-------------|
E|--4~h6-6-66--|
 
chorus:x4
 
verse riff:(play each once)
G|-------------------------------------------------| 
D|---------------------------------------------44--|
A|--------0h1h2--------------0h2p0-2b3-0-----------|
E|--0h1h2-------0-0-2---0h1h2-------------22-2-----|
 
G|--------------------------------------------|
D|--------------------------------------------|
A|--------0h1h2---------------0h2p0-2b3-0-----|
E|--0h1h2-------0-0-2---0h1h2-------------22--|
 
    (3:18)
G|--------------------------------------------|
D|--------------------------------------------|
A|--------0h2p0---------------0h2p0-2b3-0-----|
E|--0h1h2-------0-0-2---0h1h2-------------22--|
 
G|--------------------------------------------|
D|--------------------------------------------|
A|--------0h1h2-------------------------------|
E|--0h1h2-------0-0-2--0-2-2---0-2-2---0-2-2--|
 
end:(play til end of song)
G|-------|
D|-------|
A|-------|
E|--2-2--|
 
There yah go.  I know it's long, but there was so many variations of stuff,
I just decided to write most of it out. I think most of it is right.
 
HAVE FUN!!

[ Tab from: http://www.guitartabs.cc/tabs/b/black_crowes/lickin_btab.html ]
Comments