Black Christmas - Ww2 Chords & Tabs

 

Ww2 Chords & Tabs

Black Christmas Chords & Tabs

Version: 1 Type: Tab 1 rating
1 star 2 stars 3 stars 4 stars 5 stars
comments

Ww2 Tab

   
World War 2
Black Christmas
Simmons, Strømman

Intro:
-
E-------------------------------------
B-------------------------------------
G-------------------------------------
D2-x-x-x-x-x-x-x-x-x-x-x-x-x-x-x-x-x-x
A2-x-x-x-x-x-x-x-x-x-x-x-x-x-x-x-x-x-x
E0-x-x-x-x-x-x-x-x-x-x-x-x-x-x-x-x-x-x


Finger Riff.
E-------------------------------------
B-------------------------------------
G-------------------------------------
D-5-5-5-5-4-4-4-4-2-2-4-4-5-5-5-5-----        4X
A7-7-7-7-5-5-5-5-3-3-5-5-7-7-7-7------
E-------------------------------------


Ref.
E-------------------------------------------
B-------------------------------------------
G5--5--7-7-9r-------------------------------
D5--5--7-7-9r-------------------------------      4X
A3--5--5-5-7r-------------------------------
E-------------------------------------------



Bass Solo:
[ Tab from: http://www.guitartabs.cc/tabs/b/black_christmas/ww2_tab.html ]
G-------------------------------------------
D ------------------------------------------
A0--0-2-3-2-0---0-2-------------------------
E----------------3-----0r-------------------


G------------------------------------------
D -----------------------------------------
A0--0-2-3-2-0---0-2/-7r--------------------
E----------------3-------------------------









Heavy riff 1.
E------------------------------------
B------------------------------------
G9-x-x-x-x-x-x-x-x-x- ---------------
D9-x-x-x-x-x-x-x-x-x-4-5-4-2---------            4X
A7-x-x-x-x-x-x-x-x-x-5-5-5-3---------
E------------------------------------


Vers:

E------------------------------------------
B------------------------------------------
G9-x-x-x-x-x-x-x-7-x-x-x-x-x-x-x-5-5-7-7-9r
D9-x-x-x-x-x-x-x-7-x-x-x-x-x-x-x-5-5-7-7-9r       4X
A7-x-x-x-x-x-x-x-5-x-x-x-x-x-x-x-3-3-5-5-7r
E------------------------------------------


Ref.
E-------------------------------------------
B-------------------------------------------
G5--5--7-7-9r-------------------------------
D5--5--7-7-9r-------------------------------      4X
A3--5--5-5-7r-------------------------------
E-------------------------------------------
Comments