Black Christmas - We Are The Black Christ's Chords & Tabs

 

We Are The Black Christ's Chords & Tabs

Black Christmas Chords & Tabs

Version: 1 Type: Tab 1 rating
1 star 2 stars 3 stars 4 stars 5 stars
comments

We Are The Black Christ's Tab

   
We Are The Black Christ’s
Black Christmas
Strømman,Melano

Intro riff 1
(Play it in HalfTones)
E-7---------7----------7---------7----------12---------------
B---7----------7---------7----------7----------12------------
G-----5-7r-------5-7r-----5-7r-------5-7--------12-----------
D-------------------------------------------------------9r---
A-----------------------0-------------------------------9r---  
E-0---------0-------------------------------------------7r---   

Fill in Nr 1.
E----12/p----12(ha)----------
B---------------12(ha)-------
G-----------------12(ha)-----  2X
D----------------------------  
A----------------------------
E-0r-------------------------

Intro Riff 2.
E---------------------------------------------------------------
B----12-13-12-10-12-10h12---------12-13-12-10-12-10h12----------
G--------------------------12-9-------------------------12-9----
D--------------------------------------------------------------- 2 X
A---------------------------------------------------------------
E0r----------------------------0r-------------------------------
[ Tab from: http://www.guitartabs.cc/tabs/b/black_christmas/we_are_the_black_christs_tab.html ]
E-------------------------------------12(ha)-------
B---------------------------------------12(ha)-----
G9-11-9-7-9-7--7--------------------------12(ha)---
D----------------9--9-7--9r------------------------
A0-------------------------------------------------
E------------------------7r------------------------
                                   
                                    
>Fill in 2.
(Play it in HalfTones)
E--------------------
B----12/p------------
G-----------5-7-5-7r-
D--------------------
A--------------------
E-0------------------







Solo riff 1.
E------------------------------------------------------
B------------------------------------------------------
G-11-12-14-12-11-9-11-9r--14b-14b-12-11-12-------------
D------------------------------------------------------
A------------------------------------------------------
E------------------------------------------------------
 E                   G                  A                 B
E------------------------------------------------------12---------
B-----------------------------------------------------12----------
G-11-12-14-12-11-9-11-9r-----------------------------12-----------
D---------------------------9--7--9r------------------------------
A-----------------------------------------------------------------
E-----------------------------------------------------------------   
  E                 G                   A                   B
Comments