Black Christmas - Lord, Amen Chords & Tabs

 

Lord, Amen Chords & Tabs

Black Christmas Chords & Tabs

Version: 1 Type: Tab 0 ratings
1 star 2 stars 3 stars 4 stars 5 stars
comments

Lord, Amen Tab

Amen
Black Christmas
Strømman, Melano,Johannsen.

 

Intro riff 1.

E------------------------
B------------------------
G9r----9r----9r----9r----
D9r----9r----9r----9r----
A7r----7r----7r----7r----
E------------------------

 

Intro riff 2.: 

E-------------------------
B-------------------------
G-------------------------
D-9--10--9--7--9----------
A-7---8--7--5--7-----7r---
E--------------------5r---

 

E-------------------------
B-------------------------
G-------------------------
D-9--10--9--7--9r---------
A-7---8--7--5--7r---------
--------------------------

 

Vers Riff: 1.

E--------------------------------
B--------------------------------
G--------------------------------
D-9-x-x-x-x-x-x-x-x-x-x----------
A-7-x-x-x-x-x-x-x-x-x-x--7-x-x-x-
E------------------------5-x-x-x-
[ Tab from: http://www.guitartabs.cc/tabs/b/black_christmas/lord_amen_tab.html ]
 

E--------------------------------
B--------------------------------
G--------------------------------
D-9-x-x-x-x-x-x-x-x-x-x--10-x-x-x
A-7-x-x-x-x-x-x-x-x-x-x---8-x-x-x
E--------------------------------

 

 

Gitar riff, pre chorded.

E---------------------------------------
B---------------------------------------
G---------------------------------------
D---------------------------------------     
A---------------------------------------
E0-0-0-12-0-0-10-0-8-0-0-7-5h7----------

 (-x-x-x-x-x-x-x-x-x-x-x-x-x-x-x)

 

 

Setting:

Intro Riff 1. 
Intro riff 2. 4X 
Vers Riff 1. 2X(solo) 
Vers Riff 1. 2X 
Intro riff 2. 2X 
Vers Riff 1. 2X 
Intro riff 2. 2X 
Vers Riff 1. 2X(solo) 
Vers riff 1.  2x 
Intro riff 2. 2x 
Drum-Bass. 
Gitar riff prechorded. 4X 
Gitar riff prechorded 4X & Intro riff 2 . 2X
Comments