Black Amber - Severed Chords & Tabs

 

Severed Chords & Tabs

Black Amber Chords & Tabs

Version: 1 Type: Tab 0 ratings
1 star 2 stars 3 stars 4 stars 5 stars
comments

Severed Tab

   
Artist: Black Amber
Song: Severed


I found this band on MP3.com and loved this song. I HAD to learn it, it's fun to play.
http://www.mp3.com/black_amber



Clean Intro

E-----------------------------------------
B-----------------------------------------
G-----4---4-----5---5---------------------
D---2---2-----3---3-------5---5-----5---5-
A-0---------0-----------3---3-----5---5---
D---------------------3---------5---------


Melody Distorted

E-------------------------------
B-5-5-3-5-3-1-0-0-1-3-1-0-1-0---
G-----------------------------2-
D-------------------------------
A-------------------------------
D-------------------------------


2nd Melody

E-------------------------------------------------
B-------------------------------------------------
G-0-2-0-------------------------------------------
D-------3-5-3-2-3-5-3-2-5-7-5-7-9-7-5-3-5-3-2-----
A---------------------------------------------3-2-
D-------------------------------------------------


Verse (let each chord ring)

E---------
B---------
G-2-------
D-2-5-3-5-
A-0-5-3-5-
D---5-3-5-


Chorus
[ Tab from: http://www.guitartabs.cc/tabs/b/black_amber/severed_tab.html ]
E---------------------------
B---------------------------
G----------------------10-9-
D-7-7-7-7-3-3-3-3-5-5-5-----
A-7-7-7-7-3-3-3-3-5-5-5-8-7-
D-7-7-7-7-3-3-3-3-5-5-5-----


Post Chorus

E-------------------------------------------------------
B-------------------------------------------------------
G----------10/910----------10/910----------------10/9-
D-x7-x7-x7---------x3-x3-x3---------x5-x5-x5-x5-x5------
A-x7-x7-x7--8/78--x3-x3-x3--8/78--x5-x5-x5-x5-x5--8/7-
D-x7-x7-x7---------x3-x3-x3---------x5-x5-x5-x5-x5------


Bridge 1

E---------------------------------------------------------
B---------------------------------------------------------
G---------------------------------------------------------
D-------------------------7---------------------------7---
A-------8-------7----8------8-------8-------7----8------8-
D-x0-x0---x0-x0---x0---x0-----x5-x5---x5-x5---x5---x5-----


Break in Bridge

E-----------
B-----------
G-----19-19-
D-0---------
A-0---17-17-
D-0---------


Bridge 2

E-----------------------
B-----------------------
G-4---5---7---9/7/5/4/5-
D-2---3---5-------------
A-0---0---0---7/5/3/2/3-
D-----------------------
Comments