Bjork - Possibly Maybe Chords & Tabs

 

Possibly Maybe Chords & Tabs

Bjork Chords & Tabs

Version: 2 Type: Bass Tab 0 ratings
1 star 2 stars 3 stars 4 stars 5 stars
comments

Possibly Maybe Bass Tab

artist: bjork
album: post
song: possibly maybe
transcriber: -d. (discogravy@hotmail.com)

[ Tab from: http://www.guitartabs.cc/tabs/b/bjork/possibly_maybe_btab_ver_2.html ]
intro/main part.
G|------16-15-------15-----|
D|----------------16-------|
A|--14---------14------14--|
E|-------------------------|

other main part.
G|-------------------|
D|-------------------|
A|-------------------|
E|--77--77--2-5--77--|
Comments