Bjork - Luktar-gvendur Chords & Tabs

 

Luktar-gvendur Chords & Tabs

Bjork Chords & Tabs

Version: 1 Type: Bass Tab 0 ratings
1 star 2 stars 3 stars 4 stars 5 stars
comments

Luktar-gvendur Bass Tab

walking jazz, only walk notes are noted - ghost notes and stuff is up to you :)
comments to aragorn@ticino.com

              1   2   3   4    (fourths)
 -> piano ->  1234123412341234 (sixteenths) 

G        ----|---------------|---------------|------------3--|---------------|   (1)
D        ----|1-------0------|---------------|--------3------|1-------1---2--|
A        ----|---------------|3-------2------|1--------------|---------------|
E        ----|---------------|---------------|---------------|---------------|

---------------|----3---0------|---------------|---------------|---------------| (2)
3---3-------0--|1-----------1--|0--------------|---------------|---------------| she sings
--------1------|---------------|------------5--|3---2---1---0--|--------0---0--|
---------------|---------------|----4---3------|---------------|4---4----------|

---------------|---------------|---------------|                                 (3)
---------------|---------------|---------------|
1---2---3------|----0---3---2--|1---1---2---3--|
------------2--|1--------------|---------------|

---------------|----3---0------|---------------|---------------|---------------| (4) like (2)
3---3-------0--|1-----------1--|0--------------|---------------|---------------|
--------1------|---------------|------------5--|3---2---1---0--|--------0---0--|
---------------|---------------|----4---3------|---------------|4---4----------|

---------------|---------------|---------------|                                 (5) variation of (3)
---------------|------------0--|1-----------3--|
1---2---3------|----0---1------|----2---1------|
------------2--|1--------------|---------------|

---------------|---------------|------------3--|---------------|---------------| (6)
1---1---0---0--|---------------|--------3------|1---1---2------|3---3---2---2--|
---------------|3---3---2---2--|1---1----------|------------3--|---------------|
---------------|---------------|---------------|---------------|---------------|

---------------|---------------|--------3------|                                 (7)
1---1---0------|---------------|----3----------|
------------4--|3--------------|1-----------1--|
---------------|----1---3---4--|---------------|

---------------|---------------|------------3--|----3---0------|                 (8)
1---1---0---0--|---------------|--------3------|1-----------1--|                 1m29s
---------------|3---3---2---2--|1---1----------|---------------|
---------------|---------------|---------------|---------------|

---------------|----3---0------|---------------|---------------|---------------| (9) like (2)
3---3-------0--|1-----------1--|0--------------|---------------|---------------|
--------1------|---------------|------------5--|3---2---1---0--|--------0---0--|
---------------|---------------|----4---3------|---------------|4---4----------|
[ Tab from: http://www.guitartabs.cc/tabs/b/bjork/luktar_gvendur_btab.html ]
---------------|---------------|---------------|                                 (10) variation of (3)
---------------|------------0--|1---1-------1--|
1---2---3------|----3---1------|--------1------|
------------2--|1--------------|---------------|

---------------|----3---0------|---------------|---------------|---------------| (11) like (2)
3---3-------0--|1-----------1--|0--------------|---------------|---------------| voice stops
--------1------|---------------|------------5--|3---2---1---0--|--------0---0--|
---------------|---------------|----4---3------|---------------|4---4----------|

---------------|---------------|---------------|----1---3------|----3---0------| (12)
---------------|---------------|------------2--|3-----------2--|1-----------1--|
1---2---3------|----0---3---2--|1---2---3------|---------------|---------------|
------------2--|1--------------|---------------|---------------|---------------|

---------------|---------------|---------------|---------------|---------------|--------3------| (13)
0--------------|---------------|---------------|---------------|------------0--|1---1----------|
------------5--|3---2---1---0--|--------0---0--|1---2---3------|----0---1------|------------1--|
----4---3------|---------------|4---4----------|------------2--|1--------------|---------------|


---------------|---------------|------------3--|---------------|---------------| (14) variation of (6)
1---1---0---0--|---------------|--------3------|1-------1---2--|3---3---2---2--| she sings
---------------|3---3---2---2--|1---1----------|----1----------|---------------|
---------------|---------------|---------------|---------------|---------------|

---------------|---------------|--------3------|---------------|---------------| (15)
1---1---0------|---------------|----3-------2--|1---1---0---0--|---------------|
------------3--|------------0--|1--------------|---------------|3---3---2---2--|
---------------|1---3---4------|---------------|---------------|---------------|

------------3--|---------------|---------------|----3---0------|---------------| (16)
--------3------|1-------1---2--|3---3-------0--|1-----------1--|0--------------|
1---1----------|----1----------|--------1------|---------------|------------5--|
---------------|---------------|---------------|---------------|----4---3------|

---------------|---------------|---------------|---------------|------------0--| (17)
---------------|---------------|---------------|------------0--|1-------1------| slow down
3---2---1---0--|--------0---0--|1---2---3---2--|--------1------|---------------|
---------------|4---4----------|---------------|1---1----------|---------------|

1--------------|---------------|---------------|---------------|---------------| (18)
---------------|---------------|---------------|---------------|---------------|
--------0------|1-------3------|---------------|---------------|1--------------|
---------------|---------------|---------------|1--------------|---------------|

---------------|                                                                 (19)
1---1---1---1--| repeat slowing down
---------------| if you have the 5th string, go down one octave
---------------|
Comments