Bishop Stephen - It Might Be You Chords & Tabs

 

It Might Be You Chords & Tabs

Bishop Stephen Chords & Tabs

Version: 1 Type: Tab 0 ratings
1 star 2 stars 3 stars 4 stars 5 stars
comments

It Might Be You Tab


     It Might Be You
     By: Stephen Bishop
     
     This is just my version of It Might Be You. For sure, the chorus part of this version
     is not exactly correct compared to the original song but its sounds good!
     
     
     Intro:


	e:----------0---0h2------|----------0---0h2------|
	B:------3-----------3----|------3-----------3----|
	G:----2---2---2-------2--|----2---2---2-------2--|
	D:--0--------------------|-----------------------|
	A:-----------------------|-----------------------|
	E:-----------------------|--2--------------------|

        e:----------0---0h2------|----------0-----------||
	B:------3-----------3----|------3-----3-----3---||
	G:----2---2---2-------2--|----2---2-----2h3---2-||
	D:-----------------------|----------------------||
	A:-----------------------|--0-------------------||
	E:--3--------------------|----------------------||

     Verse:

	e:----------0---0h2------|----------0---0h2------|
	B:------3-----------3----|------3-----------3----|
	G:----2---2---2-------2--|----2---2---2-------2--|
	D:--0--------------------|-----------------------|
	A:-----------------------|-----------------------|
	E:-----------------------|--2--------------------|

        e:----------0---0h2------|----------0-----------||
	B:------3-----------3----|------3-----3-----3---||
	G:----2---2---2-------2--|----2---2-----2h3-----||
	D:-----------------------|----------------------||
	A:-----------------------|--0-------------------||
	E:--3--------------------|----------------------||

     Chorus:          

	e:--------------5--5-----|----5-------5--5-------|
	B:------3---2-3----------|--3---3-2-3------------|
	G:----2---2--------------|-----------------------|
	D:--0--------------------|-----------------------|
	A:-----------------------|-----------------------|
	E:-----------------2-----|---------------3-------|

	e:----5-------5--5--7-3-2-----0------------------|
	B:--3---3-2-3-------------3-----3----------------| 
	G:--------------------------2--------------------| 
	D:-----------------------------------------------|
	A:---------------0-------------------------------|
	E:-----------------------------------------------|
 
[ Tab from: http://www.guitartabs.cc/tabs/b/bishop_stephen/it_might_be_you_tab.html ]
	e:--------------5--5-----|----5-------5--5-------|
	B:------3---2-3----------|--3---3-2-3------------|
	G:----2---2--------------|-----------------------|
	D:--0--------------------|-----------------------|
	A:-----------------------|-----------------------|
	E:-----------------2-----|---------------3-------|

	e:----5-------5--5--7-3-2-----0--------X---------|
	B:--3---3-2-3-------------3------------3---------| 
	G:--------------------------2----------2---------| 
	D:-------------------------------------0---------|
	A:---------------0---------------------0---------|
	E:-------------------------------------0---------|


     This is the other version of It Might Be You (Version of my friend Bracks)
                         but Im not so sure which is better.
       If you have some sugestion just to improve this version, just send it to 
                        miyazaki_wakai_ichiban08@hotmail.com


	e:------3---5---5s7-3--|------3---5---5s7-3------|
	B:----3---3---3--------|----3---3---3------------|
	G:--0------------------|--4----------------------|
	D:---------------------|-------------------------|
	A:---------------------|-------------------------|
	E:---------------------|-------------------------|
	
	e:------3---5---5s7-3--|------3---3h5-3-----3----|
	B:----3---3---3--------|----3---3-------3h5---3--|
	G:--5------------------|--5----------------------|
	D:---------------------|-------------------------|
	A:---------------------|-------------------------|
	E:---------------------|-------------------------|

        e:------3-------10-10---10-------10-10---10------|
	B:----3---3-7-8-------8----8-7-8-------8----8----|
	G:--0--------------------------------------------|
	D:-----------------------------------------------|
	A:-----------------------------------------------|
	E:-----------------------------------------------|

	e:------10-10-12-8-7-5-33--||
	B:--7-8--------------------||
	G:-------------------------||
	D:-------------------------||
	A:-------------------------||
	E:-------------------------||

     Thats it! Anyway, Thanks for my kuya Brian (frend ko) and
     kuya Joel(yung nagtab ng isang version! anglupit nga eh!).
     Then, If You have some comment or sugestion or anything,
     just email me ok? or just add it in your messnger list!
     miyazaki_wakai_ichiban08@hotmail.com
     burn_up_08@yahoo.com
     
Comments