Birdman And The Galaxy Trio - Squirt Mop And Toss Chords & Tabs

 

Squirt Mop And Toss Chords & Tabs

Birdman And The Galaxy Trio Chords & Tabs

Version: 1 Type: Tab 0 ratings
1 star 2 stars 3 stars 4 stars 5 stars
comments

Squirt Mop And Toss Tab

   
Artist            : Bird, Man, & the Galaxy Trio
Album             : Fun fun fun fun fun fun fun BIG TIME!!
Song              : Squirt, Mop, & Toss

Transcribed by    : Tuck
Date              : 03-25-2003
E-mail            : Phishician@aol.com
URL               : 

Note              : This one is by Steve. Bird's first original. hard to get the progression down but very cool. 7/8 and 4/4 time
Tuning            : Standard


[Part A ]
e|-------------------------------------------------------------------------|
B|-------10------ 8------------12------------------------------------------|
G|-------11-------8------------11------------------------------------------|
D|-------9--------8------------12------------------------------------------|
A|------10---------------------10------------------------------------------|
E|----------------8--------------------------------------------------------|
7

[Part B]
e|-------------------------------------------------------------------------|
B|-------10-----10------8--------------------------------------------------|
G|-------11-----10------9--------------------------------------------------|
D|-------9------10------9--------------------------------------------------|
A|------10-----------------------------------------------------------------|
E|---------------10-----8--------------------------------------------------|

[ Tab from: http://www.guitartabs.cc/tabs/b/birdman_and_the_galaxy_trio/squirt_mop_and_toss_tab.html ]
[Part C]
e|-------------------------------------------------------------------------|
B|-------8-----9-----------------------------------------------------------|
G|-------7-----8-----------------------------------------------------------|
D|-------5-----9-----------------------------------------------------------|
A|-------7-----8-----------------------------------------------------------|
E|-------------------------------------------------------------------------|


[Part D (4/4)]
e|-------------------------------------------------------------------------|
B|----10-------10----------------------------------------------------------|
G|-----11------11----------------------------------------------------------|
D|-----9--------11---------------------------------------------------------|
A|-----10------------------------------------------------------------------|
E|--------------10---------------------------------------------------------|
repeat for four bars

[drum solo (4/4)]
e|-------------------------------------------------------------------------|
B|------12------------------------10---------------------------------------|
G|------13------------------------11---------------------------------------|
D|------11------------------------11---------------------------------------|
A|------12-----------------------------------------------------------------|
E|---------------------------------10--------------------------------------|
repeat for four bars

[End]
e|-------------------------------------------------------------------------|
B|--10--10----10--8-----8--6-----------------------------------------------|
G|--11--11----10--9-----8--7------6----------------------------------------|
D|---9--11----10--9-----8--7------5----------------------------------------|
A|--10----------------------------7----------------------------------------|
E|--------------------------------5----------------------------------------|


Progression:
A A B
A B
A A B C
A A B
A B
A A BC
D Drum solo
Repeat all
End
Comments