Birdman And The Galaxy Trio - Peas No Please Chords & Tabs

 

Peas No Please Chords & Tabs

Birdman And The Galaxy Trio Chords & Tabs

Version: 1 Type: Tab 0 ratings
1 star 2 stars 3 stars 4 stars 5 stars
comments

Peas No Please Tab

   
Artist            : Birdman & the Galaxy Trio
Album             : FUN FUN FUN FUN BIG TIME
Song              : Peas, no Please

Transcribed by    : Tuck
Date              : 04-17-2003
E-mail            : Phishician@aol.com
URL               : www.homestarrunner.com

Note              : by Colin Moody
Tuning            : Standard


[Intro]
    D          A         C         G        
    /    /     /    /    /    /    /    /
e|--5----------5---------3---------3---------------------------------------|
B|--7----------5---------5---------3---------------------------------------|
G|--7----------6---------5---------6---------------------------------------|
D|--7----------7---------5---------5---------------------------------------|
A|--5----------7---------3---------5---------------------------------------|
E|-------------5-------------------3---------------------------------------|
2x
[ Tab from: http://www.guitartabs.cc/tabs/b/birdman_and_the_galaxy_trio/peas_no_please_tab.html ]
[verse chords ]
      E    C#m   D     B         E    C#m    D     B     E                 
      /  /  /  /  /  / / / / /   /  /  /  /  /  /  /  /  /  /                         
e|----7----9-----10----9---------7-----9----10-----7-----7-----------------|
B|----9----9-----10----9---------9-----9----10-----7-----9-----------------|
G|----9----9-----11----8---------9-----9----11-----8-----9-----------------|
D|----9----11----12----9---------9----11----12-----9-----9-----------------|
A|----7----11----12----9---------7----11----12-----9-----7-----------------|
E|----------9----10----7---------------9----10-----7-----------------------|
1x

[chorus chords]
     A     B     E     D    C#m     B       E          
     /  /  /  /  /  /  /  /  /  /   /   /   /   /   /   /        
e|---5-----7-----7-----5-----4------2-------7------------------------------|
B|---5-----7-----9-----7-----6------4-------9------------------------------|
G|---6-----8-----9-----7-----6------4-------9------------------------------|
D|---7-----9-----9-----7-----6------4-------9------------------------------|
A|---7-----9-----7-----5-----4------2-------7------------------------------|
E|---5-----7---------------------------------------------------------------|
1x

[solo chords]
      D       A         C       G      
reg.  /   /   /    /    /   /   /         
cut.  /       /         /       /            
e|----5-------5---------3-------3------------------------------------------|
B|----7-------5---------5-------3------------------------------------------|
G|----7-------6---------5-------4------------------------------------------|
D|----7-------7---------5-------5------------------------------------------|
A|----5-------7---------3-------5------------------------------------------|
E|-------------5-----------------3-----------------------------------------|
4 times through, then kyle cuts time. 4 bars playing over cut time, then play in cut time
Comments