Birdbrain - Youth Of America Chords & Tabs

 

Youth Of America Chords & Tabs

Birdbrain Chords & Tabs

Version: 4 Type: Tab 0 ratings
1 star 2 stars 3 stars 4 stars 5 stars
comments

Youth Of America Tab

   
-------------------------------------------------------------------------------
			     SONG NAME - Band Name
-------------------------------------------------------------------------------
Tabbed by: Xeus 
Email:tomytomtom@hotmail.com

Tuning: standard E

this is pretty simple song but i think it sounds really classy and the nirvana-esque
vocals are always cool

this is the main riff/verse to the song

e|-----------------------|
B|-----------------------|
G|-----------------------|
D|--11---99---77---444---|
A|--11---99---77---444---|
E|--9----77---55---222at this point i think they do a lil --2h3- but hey, experiment

chorus

[ Tab from: http://www.guitartabs.cc/tabs/b/birdbrain/youth_of_america_tab_ver_4.html ]
play these chords a bit
e|-----------------------|
B|-----------------------|
G|--7--------------------|
D|--7-8-7----------------|
A|--5-8-7----------------|
E|----6-5----------------|

the solo is just working on a major pentatonic scale from based from the 9th fret on
the low e string or in the key of C
just work around these notes and get lots of hammer ons and pull offs:


e|---------------------------------9--12---| it sounds tops with a lil 
B|-------------------------9--12-----------| wah...
G|-------------------9--11-----------------|
D|-------------9--11-----------------------| 
A|-------9--11-----------------------------| 
E|-9--12-----------------------------------|


the outro is just the main verse riff


| /  slide up
| \  slide down
| h  hammer-on
| p  pull-off
| ~  vibrato
| +  harmonic
| x  Mute note
===============================================================================
Comments