Birdbrain - Youth Of America Chords & Tabs

 

Youth Of America Chords & Tabs

Birdbrain Chords & Tabs

Version: 2 Type: Tab 0 ratings
1 star 2 stars 3 stars 4 stars 5 stars
comments

Youth Of America Tab

this is my second tab so its gonna suck. but here goes.

Song:Youth of America. By: Birdbrain
Album: "Scream" soundtrack
Tuning: standard
X- palm mute

intro& verse: Play during both verses. 

E--x-x-x--x-x-x--x--x--x-----------------------
B--x-x-x--x-x-x--x--x--x-----------------------
G--x-x-x--x-x-x--x--x--x-----------------------
D--2-2-2--5-5-5--10-10-10----------------------
A- 2-2-2--5-5-5--10-10-10----------------------
E--0-0-0--3-3-3--8--8--8----3--5--3--0---------

...say a prayer for the youth of America...
[ Tab from: http://www.guitartabs.cc/tabs/b/birdbrain/youth_of_america_tab_ver_2.html ]
chorus:
E----X------X------X---------------------------------------
B----X------X------X---------------------------------------
G----X------X------X---------------------------------------
D----2------5------10---------------------------------------
A----2------5------10---------------------------------------
E----0------3------8---------------------------------------

    8X     8X      8X


...Yourrrrrrrrr allllllllllll deadddddddddddd...

...youve been wasted...


i love all three of those movies and this song is the best song 
that fits the movies. if you wanna hear a clip of it, watch the movie 
" Scream " and you'll hear it at Stu's party.


until next time....

if you have any questions or if my tabs are wrong, e- mail me at
DcDcsk8er@aol.com







Comments