Biohazard - Way Chords & Tabs

 

Way Chords & Tabs

Biohazard Chords & Tabs

Version: 1 Type: Tab 0 ratings
1 star 2 stars 3 stars 4 stars 5 stars
comments

Way Tab

   
##################################################################################
# This file is the author's own work and represents their interpretation of the  #
# song. You may only use this file for private study, scholarship, or research.  #
##################################################################################

this is one of the greatest songs of biohazard check it out playin it. It's quit an easy, but fuck it, i love to play it!

                        B   I   O   H   A   Z   A   R   D
                                  A--W--A--Y
  (Mata  Leao)




This is written in standard tuning.


INTRO
-----

E-----------------------------------------------------
B-----------------------------------------------------
G---9-9-9-9-9--12-12-10-10-12--9-9-9-9-9--10-10-10-7--
D---9-9-9-9-9--12-12-10-10-12--9-9-9-9-9--10-10-10-7--
A---7-7-7-7-7--10-10--8--8-10--7-7-7-7-7---8--8--8-5--
E-----------------------------------------------------

E--------------------------------------------------------
B--------------------------------------------------------
G---9-9-9-9-9--12-12-10-10-12--9-9-9-9-9-9--15-15-15-15--
D---9-9-9-9-9--12-12-10-10-12--9-9-9-9-9-9--15-15-15-15--
A---7-7-7-7-7--10-10--8--8-10--7-7-7-7-7-7--13-13-13-13--
E--------------------------------------------------------

×2

VERSE 1
-------

like before ×2


BREAK
-----

E----------------------------
B----------------------------
G---9-9--7-7--10-10--7-10-9--
D---9-9--7-7--10-10--7-10-9--
A---7-7--5-5---8--8--5--8-7--
E----------------------------


PRE-CHORUS
----------

E----------------------------
B----------------------------
G---9-9--7-7--10-10--7-10-9--
D---9-9--7-7--10-10--7-10-9--
A---7-7--5-5---8--8--5--8-7--
E----------------------------

E----------------------------
B----------------------------
G---9-9--7-7--10-10--9-7-10--
D---9-9--7-7--10-10--9-7-10--
A---7-7--5-5---8--8--7-5--8--
E----------------------------
×2

" -dead!!! I wish that I was dead!!!"

CHORUS
------

E----------------------------
B----------------------------
G---9-9--7-7--10-10--7-10-9--
D---9-9--7-7--10-10--7-10-9--
A---7-7--5-5---8--8--5--8-7--
E----------------------------

E----------------------------
B----------------------------
G---9-9--7-7--10-10--9-7-10--
D---9-9--7-7--10-10--9-7-10--
A---7-7--5-5---8--8--7-5--8--
E----------------------------
×2
[ Tab from: http://www.guitartabs.cc/tabs/b/biohazard/way_tab.html ]
"Gotta find a way in this world to cope
Gotta find a place in this world with hope" ×2

BRIDGE
------

E----------
B----------
G---11...--  listen to the track how to play it
D---11...--
A----9...--
E----------

E----------
B----------
G----------  listen to the track how to play it i think that it's just this one riff, but
D---4------  you can hear changes in it, but i think that it's the bass guitar in the back. 
A---4------  But if you want, you can play +  024400 i don't care.. :)
E---2------

That was the bridge to the real outro

OUTRO
-----

E------------------------
B------------------------
G--------5-5--------9-9--
D---4-4--5-5--6--7--9-9--
A---4-4--3-3--6--7--7-7--
E---2-2-------4--5-------

×8
G--11--
and the last note is  + D---9--
A---9--

E----------------------------
B----------------------------
G---9-9--7-7--10-10--9-7-10--
D---9-9--7-7--10-10--9-7-10--
A---7-7--5-5---8--8--7-5--8--
E----------------------------

×2

" -down... towing me down.."
VERSE 2
-------
Like the first one.


Hope ya enjoy the song, I love to play it. Plz email me if you find anything wrong, but I think,
 it's fully correct. 

durstorique@yahoo.com    DURSTORIQUE from hungary the home of football 



***********************************************************************


Date: Tue, 12 May 1998 21:26:05 -0400
From: James Needre 
Subject: b/biohazard/these_eyes_have_seen.tab

These Eyes(Have Seen)(Live)
Biohazard
Off No Holds Barred
By James Needre
Email:rneed@ma.ultranet.com
http://www.geocities.com/SunsetStrip/Palladium/6662
Tune Down A Whole Step (D,G,C,F,A,D)

Riff A

G--2-2-4-4-4--2-2-4-4-4--2-2-4-4-4-5-5-5-4-4-4--
D--0-0-2-2-2--0-0-2-2-2--0-0-2-2-2-3-3-3-2-2-2--


Riff B

Pick scrape slide on low D string once.


Riff C

C--5---8------
G--3---6---8--
D----------6--


Riff D

C--4-4-4-6-6-6--4-4-4-7-7-7--4-4-4-6-6-6-4-4-4--------
G--2-2-2-4-4-4--2-2-2-5-5-5--2-2-2-4-4-4-2-2-2-5-5-5--
D----------------------------------------------3-3-3--

Riff E

G--5-5-5-5-5-5-5-5-5-5-5-5--
D--3-3-3-3-3-3-3-3-3-3-3-3--
      All Palm Muting

Riff F
Same as Riff A but a lot slower.

End

G--3--
D--1--


Order
Riff B   x12
Riff A   x2
Riff B   x8
Riff A   x4
Riff C   x1
Riff A   x1
Riff C   x1
Riff D   x8
Riff E   x1
Riff F   x4
Riff A   x4
End      x1
Comments