Biohazard - These Eyes Chords & Tabs

 

These Eyes Chords & Tabs

Biohazard Chords & Tabs

Version: 1 Type: Bass Tab 0 ratings
1 star 2 stars 3 stars 4 stars 5 stars
comments

These Eyes Bass Tab

tune down

F||----------------------------------|-----------------------------------||
C||----------------------------------|----------------------------------*||
G||----------------------------------|----------------------------------*||
D||--0-0-2-2-2-2-0-0-0-0-2-2-2-2-0-0-|--0-0-2-2-2-2-3-3-3-3-2-2-2-2-0-0--||


                                                                         
-----------------------------------|-----------------------------------||
*----------------------------------|----------------------------------*||
*----------------------------------|----------------------------------*||
---0-0-2-2-2-2-0-0-0-0-2-2-2-2-0-0-|--0-0-2-2-2-2-3-3-3-3-2-2-2-2-0-0--||


                                                                       3x
-----------------------------------|-----------------------------------||
*----------------------------------|----------------------------------*||
*----------------------------------|----------------------------------*||
---0-0-2-2-2-2-0-0-0-0-2-2-2-2-0-0-|--0-0-2-2-2-2-3-3-3-3-2-2-2-2-0-0--||


                                                                       3x
-----------------------------------|-----------------------------------||
*----------------------------------|----------------------------------*||
*----------------------------------|----------------------------------*||
---0-0-2-2-2-2-0-0-0-0-2-2-2-2-0-0-|--0-0-2-2-2-2-3-3-3-3-2-2-2-2-0-0--||


                                                                            
--------------------|-------------------|----------------------------------|
--------------------|-------------------|----------------------------------|
--3--------------6--|-------------------|----------------------------------|
--------------------|--------------6----|--0-0-2-2-2-2-0-0-0-0-2-2-2-2-0-0-|


                                                                            
----------------------------------|--------------------|-------------------|
----------------------------------|--------------------|-------------------|
----------------------------------|--3--------------6--|-------------------|
--0-0-2-2-2-2-3-3-3-3-2-2-2-2-0-0-|--------------------|--------------6----|

[ Tab from: http://www.guitartabs.cc/tabs/b/biohazard/these_eyes_btab.html ]
                                                                            
------------------|------------------|------------------|------------------|
------------------|------------------|------------------|------------------|
------------------|------------------|------------------|------------------|
------------------|------------------|------------------|------------------|


                                                              
|-----------------------------|-----------------------------||
|*----------------------------|----------------------------*||
|*--2--4-4-4--2--2--5-5-5--2--|--2--4-4-4--2--2------------*||
|-----------------------------|------------------3-3-3--3---||


                                                           3x
-----------------------------|-----------------------------||
*----------------------------|----------------------------*||
*--2--4-4-4--2--2--5-5-5--2--|--2--4-4-4--2--2------------*||
-----------------------------|------------------3-3-3--3---||


                                                                                
-------------------------|--------------------------||-------------------------|
-------------------------|--------------------------||*------------------------|
-------------------------|--------------------------||*------------------------|
--3----3--3--3--3--3--3--|--3--3--3--3--3--3--3--0--||---0--2----0--0--2----0--|


                         3x                                    
-------------------------||-----------------------------------|
------------------------*||*----------------------------------|
------------------------*||*----------------------------------|
--0--2----3----0--2--0---||---0-0-2-2-2-2-0-0-0-0-2-2-2-2-0-0-|


                                   3x                              
-----------------------------------||-----------------------------|
----------------------------------*||-----------------------------|
----------------------------------*||-----------------------------|
--0-0-2-2-2-2-3-3-3-3-2-2-2-2-0-0--||--0--2-2-2--3-3-3--2-2-2--1--|


                                                          
------------------|------------------|------------------||
------------------|------------------|------------------||
------------------|------------------|------------------||
------------------|------------------|------------------||
Comments