Biohazard - Sellout Chords & Tabs

 

Sellout Chords & Tabs

Biohazard Chords & Tabs

Version: 1 Type: Bass Tab 0 ratings
1 star 2 stars 3 stars 4 stars 5 stars
comments

Sellout Bass Tab

G||-------------------|------------------|------------------|
D||*------------------|------------------|------------------|
A||*------------------|------------------|------------------|
E||-------------------|------------------|------------------|


                                                                          
---------------------|-------------------------|-------------------------|
---------------------|-------------------------|-------------------------|
---------------------|-------------------------|-------------------------|
------------1--0--0--|----3--1--0--4--3--1--0--|----3--1--0--4--3--1--0--|


                                                                      
-------------------------|-----------------|-------------------------|
-------------------------|-----------------|-------------------------|
-------------------------|-----------------|-------------------------|
----3--1--0--4--3--1--0--|------1--0--0----|--3--1--0--4--3--1--0----|


                                                                             
-------------------------|-------------------------|------------------------|
-------------------------|-------------------------|------------------------|
-------------------------|-------------------------|------------------------|
--3--1--0--4--3--1--0----|--3--1--0--4--3--1--0----|----1--0--0----3--1--0--|


                                                                             
-------------------------|-------------------------|------------------------|
-------------------------|-------------------------|------------------------|
-------------------------|-------------------------|------------------------|
--4--3--1--0----3--1--0--|--4--3--1--0----3--1--0--|--4--3--1--0------1--0--|


                                                                              
-------------------------|-------------------------|-------------------------|
-------------------------|-------------------------|-------------------------|
-------------------------|-------------------------|-------------------------|
--0----3--1--0--4--3--1--|--0----3--1--0--4--3--1--|--0----3--1--0--4--3--1--|


                                                                               
------------------------|--------------------------|--------------------------|
------------------------|--------------------------|--------------------------|
------------------------|--------------------------|--------------------------|
--0------5--5--5--5--5--|--5--5--5--5--5--5--5--5--|--5--5--5--8--8--8--8--8--|


                                                                             
--------------------------|-------------------------|-----------------------|
--------------------------|-------------------------|-----------------------|
--------------------------|-------------------------|-----------------------|
--8--8--8--8--8--8--8--8--|--8--8--8----6--3--0--3--|--6----0----0--3--6----|


                                                                            
------------------------|-----------------------|--------------------------|
------------------------|-----------------------|--------------------------|
------------------------|-----------------------|--------------------------|
--0----3--0--3--6--6----|--0----0--3------7--7--|--7--7--7--7--7--7--7--7--|


                                                      
--------------------------|--------------------------|
--------------------------|--------------------------|
--------------------------|--------------------------|
--7--7--7--7--7--7--8--8--|--8--8--8--8--8--8--8--8--|


                                                                               
-------------------------||-------------------------|-------------------------|
------------------------*||*------------------------|-------------------------|
------------------------*||*------------------------|-------------------------|
--8--8--8--8--8--8-------||---6--3--0--3--6----0----|--0--3--6--0----3--0--3--|


                        3x                                      
------------------------||------------------|------------------|
-----------------------*||------------------|------------------|
-----------------------*||------------------|------------------|
--6--6--0----0--3-------||------------------|------------------|


                                                                       
--------------------|------------------------|------------------------|
--------------------|------------------------|------------------------|
--------------------|------------------------|------------------------|
------------0--3----|--0--3----0--0--0----6--|--0----0--6--0--0--0----|


                                                                            
-------------------------|------------------------|------------------------|
-------------------------|------------------------|------------------------|
-------------------------|------------------------|------------------------|
--0--0--0--6--0--0----0--|--3----0--3----0--0--0--|----6--0----0--6--0--0--|

[ Tab from: http://www.guitartabs.cc/tabs/b/biohazard/sellout_btab.html ]
                                                                           
-------------------------|-----------------------|------------------------|
-------------------------|-----------------------|------------------------|
-------------------------|-----------------------|------------------------|
--0----0--0--0--6--0--0--|----0--3----0--3----0--|--0--0----6--0----0--6--|


                                                                           
-------------------------|-----------------------|------------------------|
-------------------------|-----------------------|------------------------|
-------------------------|-----------------------|------------------------|
--0--0--0----0--0--0--6--|--0----0--3----0--3----|--0--0--0----6--0----0--|


                                                                           
-------------------------|------------------------|-----------------------|
-------------------------|------------------------|-----------------------|
-------------------------|------------------------|-----------------------|
--6--0--0--0----0--0--0--|--6--0----0--3----0--3--|----0--0--0----6--0----|


                                                                            
-------------------------|------------------------|------------------------|
-------------------------|------------------------|------------------------|
-------------------------|------------------------|------------------------|
--0--6--0--0--0----0--0--|--0--6--0--0----0--3----|--0--3----0--0--0----6--|


                                                                            
------------------------|-------------------------|------------------------|
------------------------|-------------------------|------------------------|
------------------------|-------------------------|------------------------|
--0----0--6--0--0--0----|--0--0--0--6--0--0----0--|--3----0--3----0--0--0--|


                                                                           
------------------------|-------------------------|-----------------------|
------------------------|-------------------------|-----------------------|
------------------------|-------------------------|-----------------------|
----6--0----0--6--0--0--|--0----0--0--0--6--0--0--|----0--3----0--3----0--|


                                                                            
------------------------|-------------------------|------------------------|
------------------------|-------------------------|------------------------|
------------------------|-------------------------|------------------------|
--0--0----6--0----0--6--|--0--0--0----0--0--0--6--|--0--0----0--3----0--3--|


                                                                      
------------------|------------------------|-------------------------|
------------------|------------------------|-------------------------|
------------------|------------------------|-------------------------|
----0--0--0----6--|--0----0--6--0--0--0----|--0--0--0--6--0--0----0--|


                                                                            
------------------------|------------------------|-------------------------|
------------------------|------------------------|-------------------------|
------------------------|------------------------|-------------------------|
--3----0--3----0--0--0--|----6--0----0--6--0--0--|--0----0--0--0--6--0--0--|


                                                                             
----------------------|--------------------------|--------------------------|
----------------------|--------------------------|--------------------------|
----------------------|--------------------------|--------------------------|
----0--3----0--3------|--7--7--7--7--7--7--7--7--|--7--7--7--7--7--7--7--7--|


                                                                               
--------------------------|--------------------------|------------------------|
--------------------------|--------------------------|------------------------|
--------------------------|--------------------------|------------------------|
--8--8--8--8--8--8--8--8--|--8--8--8--8--8--8--8--8--|--6--3--0--3--6----0----|


                                                                             
-------------------------|-----------------------|--------------------------|
-------------------------|-----------------------|--------------------------|
-------------------------|-----------------------|--------------------------|
--0--3--6--0----3--0--3--|--6--6--0----0--3------|--7--7--7--7--7--7--7--7--|


                                                      
--------------------------|--------------------------|
--------------------------|--------------------------|
--------------------------|--------------------------|
--7--7--7--7--7--7--7--7--|--8--8--8--8--8--8--8--8--|


                                                                         
--------------------------|------------------||-------------------------|
--------------------------|------------------||*------------------------|
--------------------------|------------------||*------------------------|
--8--8--8--8--8--8--8--8--|------------------||---6--3--0--3--6----0----|


                                                  3x
-------------------------|------------------------||
-------------------------|-----------------------*||
-------------------------|-----------------------*||
--0--3--6--0----3--0--3--|--6--6--0----0--3-------||
Comments