Biohazard - Punishment Chords & Tabs

 

Punishment Chords & Tabs

Biohazard Chords & Tabs

Version: 3 Type: Tab 0 ratings
1 star 2 stars 3 stars 4 stars 5 stars
comments

Punishment Tab

1 is thickest string, 6 is thinnest

After speech:

2:-0--0--0--1--1--1--0-------0--0--0--1--1--1--0
3:-0--0--0--1--1--1--0-------0--0--0--1--1--1--0

2:-0--0--0--1--1--1--0---3-4-3-2-2--------------
3:-0--0--0--1--1--1--0---3-4-3-2-2--------------

Main verse riff:
[ Tab from: http://www.guitartabs.cc/tabs/b/biohazard/punishment_tab_ver_3.html ]
2:-0--0--1--0--1--1-1-1-0--0--1-x-x-x-x-x-x-x-x-x
3:-0--0--1--0--1--1-1-1-0--0--1-x-x-x-x-x-x-x-x-x

Normal chorus riff:

2:-3-4-2-3---3-4-2-3---3-4-2-3---3-4-2-3
3:-3-4-2-3---3-4-2-3---3-4-2-3---3-4-2-3

End chorus riff:

2:-3-4-2-3---8-7-3-4---3-4-2-3---8-7-3-4
3:-3-4-2-3---8-7-3-4---3-4-2-3---8-7-3-4

Comments