Biohazard - Loss Chords & Tabs

 

Loss Chords & Tabs

Biohazard Chords & Tabs

Version: 1 Type: Bass Tab 0 ratings
1 star 2 stars 3 stars 4 stars 5 stars
comments

Loss Bass Tab

It's quite a short song, this is all there is!

F||------------------|------------------|------------------|------------------|
C||------------------|------------------|------------------|------------------|
G||------------------|------------------|------------------|------------------|
D||------------------|------------------|------------------|------------------|

                                                            
-----------------------------|-----------------------------|
-----------------------------|-----------------------------|
------7----------------------|------7----------------------|
--0-0----6--0-5--3--0-5h6-5--|--0-0----6--0-5--3--0-1h3-1--|

[ Tab from: http://www.guitartabs.cc/tabs/b/biohazard/loss_btab.html ]
                                                            
-----------------------------|-----------------------------|
-----------------------------|-----------------------------|
------7----------------------|------7----------------------|
--0-0----6--0-5--3--0-5h6-5--|--0-0----6--0-5--3--0-1h3-1--|


                                                              
|------------------------------|-----------------------------|
|*-----------------------------|-----------------------------|
|*------7----------------------|------7----------------------|
|---0-0----6--0-5--3--0-5h6-5--|--0-0----6--0-5--3--0-1h3-1--|


                                                              
-----------------------------|------------------------------||
-----------------------------|-----------------------------*||
------7----------------------|------7----------------------*||
--0-0----6--0-5--3--0-5h6-5--|--0-0----6--0-5--3--0-1h3-1---||
Comments