Biohazard - Hold My Own Chords & Tabs

 

Hold My Own Chords & Tabs

Biohazard Chords & Tabs

Version: 1 Type: Bass Tab 0 ratings
1 star 2 stars 3 stars 4 stars 5 stars
comments

Hold My Own Bass Tab

   
Dropped D Tuning


    q  e  e  q  e  q  e  e  e  e  e  q
G---------------------------------------|-------------------------------|
D---------------------------------------|-------------------------------|
A------------5-----5--5--3--5--3--------|-------------------------------|
D---0--0--0-----0-----------------6--5--|-------------------------------|


    q  e  e  q  e  q  e  e  e  e  e  e
G---------------------------------------|-------------------------------|
D---------------------------------------|-------------------------------|
A------------5--3--5--5--5--5--3--5--6--|-------------------------------|
D---0--0--0-----------------------------|-------------------------------|


    q  e  e  e  q  q  q  q  e  e  q
G------------------------------------|----------------------------------|
D------------------------------------|----------------------------------|
A------------5--3--0-----------------|----------------------------------|
D---0--0--0-----------6--5--0--3--1--|----------------------------------|


    e  e  e  e  e  e  e  e  e  e  e  e  q  q
G---------------------------------------------|-------------------------|
D---------------------------------------------|-------------------------|
A---------------------------------------------|-------------------------|
D---0--0--0--0--0--0--0--0--0--0--0--0--1--1--|-------------------------|


    q  e  e  e  q  q  q  e  e  q     q  e  e  e  q  q  q  s  e  q
G---------------------------------|--------------------------------|----|
D---------------------------------|--------------------------------|----|
A------------5--3-----------3--6--|-----------5--3-----------------|----|
D---0--0--0--------0--0--0--------|--0--0--0--------0--0--0--3--1--|----|

[ Tab from: http://www.guitartabs.cc/tabs/b/biohazard/hold_my_own_btab.html ]
    H  e  e  e  e  e  q     H  e  e  e  e  e  q
G------------------------|-----------------------|----------------------|
D------------------------|-----------------------|----------------------|
A------5--3--0--3--0-----|-----5--3--0--3--5--6--|----------------------|
D---0-----------------6--|--0--------------------|----------------------|


    q e  e  e  e  e  e  e  e  e  q  e  q
G-----------------------------------------|-----------------------------|
D-----------------------------------------|-----------------------------|
A---0/5--5--5--5--5--5--5--5--------------|-----------------------------|
D-----------------------------0--3--0--5--|-----------------------------|


    H  e e  H  Q  e e q  H  e  e  H  Q  Q
G------------------------------------------|----------------------------|
D------------------------------------------|----------------------------|
A------------------------------------------|----------------------------|
D---0--3p0--3--5--5h6p5--0--3--0--3--5--6--|----------------------------|


    w  e  e  q  w  e  e  q  w  h  q  e  q
G------------------------------------------|----------------------------|
D------------------------------------------|----------------------------|
A---------------------3--3-----------------|----------------------------|
D---0--0--3--3--0--0--------3--6--5--6--5--|----------------------------|


    w  e  e  e  q  w  e  e  e  q  w  q  e  q  q  q  q  e  q  q
G---------------------------------------------------------------||------|
D---------------------------------------------------------------||------|
A------------------------3--3--3--------5--3--0-----------------||------|
D---0--0--3--3--3--0--0-----------3--5-----------6--5--0--3--3--||------|
Comments