Biohazard - Control Chords & Tabs

 

Control Chords & Tabs

Biohazard Chords & Tabs

Version: 2 Type: Tab 0 ratings
1 star 2 stars 3 stars 4 stars 5 stars
comments

Control Tab

   
this is another great song from mata leao, let's tab it!


		B  I  O  H  A  Z  A  R  D

		      C-O-N-T-R-O-L

		       (Mata Leao)





INTRO
-----

just bass guitar, dunno how to play with it


VERSE 1
-------

"On your knees before the mighty them,
Receive communion once again,
Obey and follow strict laws to the letter,
Do as you're told and life will be better"

E--------|
B--------|
G--------|    "Go with the flow, avoid the strife,
D--9--8--|     Let unknown powers rule your life.
A--9--8--|     A box of glass dictates your death
E--7--6--|     Stolen minds innocence last breath"


BRIDGE
------

E---------------------------------------|
B---------------------------------------|
G---------------------------------------|
D--9-8-3-3-3-6-3-3-3-7-8-3-3-3-6-3-3-3--|  ?2
A--9-8-3-3-3-6-3-3-3-7-8-3-3-3-6-3-3-3--|
E--7-6-1-1-1-4-1-1-1-5-6-1-1-1-4-1-1-1--|


VERSE 2
-------

E--------|
B--------|
G--------|    "Whatever happened to the good old days
D--9--8--|     no mental smokescreen subliminal haze
A--9--8--|     Corporate society prints out your thoughts
E--7--6--|     Spiritualy sold and boat

E--------|
B--------|
G--------|    "Now your life is all dictated,
D--9--8--|     All you stood for all you hated
A--9--8--|     Establishment prevails again
E--7--6--|     On your knees before the mighty them"


CHORUS
------

E---------------------------------------|
B---------------------------------------|
G---------------------------------------|
D--9-8-3-3-3-6-3-3-3-7-8-3-3-3-6-3-3-3--|  ?4
A--9-8-3-3-3-6-3-3-3-7-8-3-3-3-6-3-3-3--|
E--7-6-1-1-1-4-1-1-1-5-6-1-1-1-4-1-1-1--|

"On your knees pray to the one you appease" ?4

E--------------------|
B--------------------|
G---4----7--9----3---|
D---4----7--9----3---|  ?4
A---2----5--7----1---|
E--------------------|
[ Tab from: http://www.guitartabs.cc/tabs/b/biohazard/control_tab_ver_2.html ]
"Look in my eyes and you will find
Another way to get through your life
Stare at my face make up your mind
And you will find love at first sight
Connect your soul now get online!
Mind control - taking your life.."

INSTRUMENTAL BREAK
------------------
in our last gig i broke my D and G strings, but i can remember a bit...

something like this dunno of hammer pull and other shits 'cause I haven't got now the cd..
----------------------|
----------------------|
---3-5-10-8-6-5-3-5---|
----------------------|
----------------------|
----------------------|

and the rhytm guitar does the plain riff:
E---------------------------------------|
B---------------------------------------|
G---------------------------------------|
D--9-8-3-3-3-6-3-3-3-7-8-3-3-3-6-3-3-3--|
A--9-8-3-3-3-6-3-3-3-7-8-3-3-3-6-3-3-3--|
E--7-6-1-1-1-4-1-1-1-5-6-1-1-1-4-1-1-1--|

VERSE 3
-------

E--------|
B--------|
G--------|    "Try not to look cause you might turn to stone
D--9--8--|     How much time do you really think on your own
A--9--8--|     Just tryin to be yourself
E--7--6--|     Don't wanna be like no one else"

E--------------|
B--------------|
G--------------|    "It was something that once was pure
D--9--8--------|     And the truth was meant to endure
A--9--8--------|     Gotta find out who's to blame
E--7--6--------|     Gotta end this might-control game"


CHORUS
------

E---------------------------------------|
B---------------------------------------|
G---------------------------------------|
D--9-8-3-3-3-6-3-3-3-7-8-3-3-3-6-3-3-3--|  ?4
A--9-8-3-3-3-6-3-3-3-7-8-3-3-3-6-3-3-3--|
E--7-6-1-1-1-4-1-1-1-5-6-1-1-1-4-1-1-1--|

"On your knees pray to the one you appease" ?4

E--------------------|
B--------------------|
G---4----7--9----3---|
D---4----7--9----3---|  ?4
A---2----5--7----1---|
E--------------------|

"Look in my eyes and you will find
Another way to get through your life
Stare at my face make up your mind
And you will find love at first sight
Connect your soul now get online!
Mind control - taking your life.."


------------------------------------------------------------
Hey ya get online!

Any comments corrections blabla to durstorique@yahoo.com
Comments