Biohazard - Control Chords & Tabs

 

Control Chords & Tabs

Biohazard Chords & Tabs

Version: 1 Type: Tab 0 ratings
1 star 2 stars 3 stars 4 stars 5 stars
comments

Control Tab

   
##################################################################################
# This file is the author's own work and represents their interpretation of the  #
# song. You may only use this file for private study, scholarship, or research.  #
##################################################################################

this is another great song from mata leao, let's tab it!


                      B  I  O  H  A  Z  A  R  D

                           C-O-N-T-R-O-L

                            (Mata Leao)





INTRO
-----

just bass guitar, dunno how to play with it


VERSE 1
-------

E--------
B--------
G--------    
D--9--8--     
A--9--8--    
E--7--6--     


BRIDGE
------

E---------------------------------------
B---------------------------------------
G---------------------------------------
D--9-8-3-3-3-6-3-3-3-7-8-3-3-3-6-3-3-3--  ×2
A--9-8-3-3-3-6-3-3-3-7-8-3-3-3-6-3-3-3--
E--7-6-1-1-1-4-1-1-1-5-6-1-1-1-4-1-1-1--


VERSE 2
-------

E--------
B--------
G--------    "Whatever happened to the good old days"
D--9--8--  
A--9--8--     
E--7--6--    

E--------
B--------
G--------    "Now your life is all dictated"
D--9--8--    
A--9--8--   
E--7--6--  


CHORUS
------

E---------------------------------------
B---------------------------------------
G---------------------------------------
D--9-8-3-3-3-6-3-3-3-7-8-3-3-3-6-3-3-3--  ×4
A--9-8-3-3-3-6-3-3-3-7-8-3-3-3-6-3-3-3--
E--7-6-1-1-1-4-1-1-1-5-6-1-1-1-4-1-1-1--

"On your knees pray to the one you appease" ×4
[ Tab from: http://www.guitartabs.cc/tabs/b/biohazard/control_tab.html ]
E--------------------
B--------------------
G---4----7--9----3---
D---4----7--9----3---  ×4
A---2----5--7----1---
E--------------------


INSTRUMENTAL BREAK
------------------
in our last gig i broke my D and G strings, but i can remember a bit...

something like this dunno of hammer pull and other shits 'cause I haven't got now the cd..
----------------------
----------------------
---3-5-10-8-6-5-3-5---
----------------------
----------------------
----------------------

and the rhytm guitar does the plain riff:
E---------------------------------------
B---------------------------------------
G---------------------------------------
D--9-8-3-3-3-6-3-3-3-7-8-3-3-3-6-3-3-3-- 
A--9-8-3-3-3-6-3-3-3-7-8-3-3-3-6-3-3-3--
E--7-6-1-1-1-4-1-1-1-5-6-1-1-1-4-1-1-1--



VERSE 3
-------

E--------
B--------
G--------    "Try not to look cause you might turn to stone"
D--9--8--    
A--9--8--    
E--7--6--  

E--------
B--------
G--------    "It was something that once was pure'
D--9--8--  
A--9--8--  
E--7--6--    


CHORUS
------

E---------------------------------------
B---------------------------------------
G---------------------------------------
D--9-8-3-3-3-6-3-3-3-7-8-3-3-3-6-3-3-3--  ×4
A--9-8-3-3-3-6-3-3-3-7-8-3-3-3-6-3-3-3--
E--7-6-1-1-1-4-1-1-1-5-6-1-1-1-4-1-1-1--

"On your knees pray to the one you appease" ×4

E--------------------
B--------------------
G---4----7--9----3---
D---4----7--9----3---  ×4
A---2----5--7----1---
E--------------------


------------------------------------------------------------
Hey ya get online!

Any comments corrections blabla to durstorique@yahoo.com
Comments