Binocular - Dont Say Goodbye Say Goodnight Chords & Tabs

 

Dont Say Goodbye Say Goodnight Chords & Tabs

Binocular Chords & Tabs

Version: 1 Type: Tab 0 ratings
1 star 2 stars 3 stars 4 stars 5 stars
comments

Dont Say Goodbye Say Goodnight Tab

   
 Title: Don't Say Goodbye, Say Goodnight (solo)
 Artist: Binocular
 Transcribed by: Allan John G. Amisola
 E-mail add: kogure_18spider@yahoo.com

 Naks nman, I've worked for the song's solo only... tinatapos ko pa po ung whole song. 
I'll be over with it and pose it soon.


 Standard Tuning: eBGDAE
                  with distortion
[ Tab from: http://www.guitartabs.cc/tabs/b/binocular/dont_say_goodbye_say_goodnight_tab.html ]
 e------------------------------------------------------|
 B-9/11-1312h13-11-13-9~-------------------11-13-14---|
 G---------------------------12-8-8/10-12-13------------|
 D------------------------------------------------------|
 A------------------------------------------------------|
 E------------------------------------------------------|

  --11----------11-------------------------------------|
  ----14-13h14----13/14-13-11----11-11/13-------------|
  -----------------------------13----------13----------|
  -----------------------------------------------------|
  -----------------------------------------------------|
  -----------------------------------------------------|

  Legend:
          ~  vibrato
          /  slide
          h  hammer

 Hmmm... pagtyagaan nyo na'to kc solo lng... enewey tama nman ung pagtab ko
Medyo madali po sa kamay. Para 'to kay Clover na crush ko... hehehe!!!
Comments