Binocular - Deep Chords & Tabs

 

Deep Chords & Tabs

Binocular Chords & Tabs

Version: 2 Type: Tab 1 rating
1 star 2 stars 3 stars 4 stars 5 stars
comments

Deep Tab

Deep by Binocular
Transcribed by Steven Jaranilla (sjvhynce@yahoo.com)


    Intro & Verse

   e|----------4-------|---------4-------|---------2-------|--------4-------|
   B|------------5-----|-----------5-----|-----------3-----|----------5-----|
   G|------2-------2---|------2------2---|------2------2---|------2-----2---|
   D|------------------|---4-------------|---0-------------|----------------|
   A|--0---------------|-----------------|-----------------|---2------------|
   E|------------------|-----------------|-----------------|----------------|
    
    Adlib
[ Tab from: http://www.guitartabs.cc/tabs/b/binocular/deep_tab_ver_2.html ]
    e|-----12/14--12---------------------------------|-14--12------|
    B|-10-------------14----14-14-14p12-12-12p10-10--|---------14--|
    G|-----------------------------------------------|-------------|
    D|--------------------Repeat 2x------------------|-------------|
    A|-----------------------------------------------|-------------|
    E|-----------------------------------------------|-------------|
    
     
    This is my first time to tabbed a song, so pls excuse my mistakes.
    Any additional Information pls. E-mail me
    
            
          
  
    

            
Comments