Binocular - Deep Chords & Tabs

 

Deep Chords & Tabs

Binocular Chords & Tabs

Version: 1 Type: Tab 1 rating
1 star 2 stars 3 stars 4 stars 5 stars
comments

Deep Tab

June 11, 2002
"Deep" by Binocular

Figure 1 (Intro, Verses and chorus)
E-------------------------------------------------------------------------------------------------------------------------------
B---------------------9--------------------------9----------------------7--------------------------9----------------------------
G---------------9----------9---------------9---------9-----------7---------7---------------9---------9--------------------------
D----------7--------------------7-----------------------------------------------------------------------------------------------
A--------------------------------------9--------------------9----5----------------5/7----7------------------7-------------------
E-------------------------------------------------------------------------------------------------------------------------------

Refrain:
Figure 2
(Sometimes....)
E-------------------------------------------------------------------------------------------------------------------------------
B----------9---------9-------------9----------------9---------------------------------------------------------------------------
G---------9----9---------9--------------9----------------9----------------------------------------------------------------------
D-------------------------------------------------------------------------------------------------------------------------------
A----------9--------------------9---------------9---------------9---------------------------------------------------------------
E-------------------------------------------------------------------------------------------------------------------------------
[ Tab from: http://www.guitartabs.cc/tabs/b/binocular/deep_tab.html ]
Figure 3
(I know...)
E-------------------------------------------------------------------------------------------------------------------------------
B---------14----------14-----------------14------------------14-----------------------------------------------------------------
G---------14----14----------14-----------------14------------------14-----------------------------------------------------------
D---------12------------------------12------------------12------------------12--------------------------------------------------
A-------------------------------------------------------------------------------------------------------------------------------
e-------------------------------------------------------------------------------------------------------------------------------

Figure 2
(Sometimes..)
E-------------------------------------------------------------------------------------------------------------------------------
B----------9---------9-------------9----------------9---------------------------------------------------------------------------
G----------9----9---------9--------------9----------------9----------------------------------------------------------------------
D-------------------------------------------------------------------------------------------------------------------------------
A----------9--------------------9---------------9---------------9---------------------------------------------------------------
E-------------------------------------------------------------------------------------------------------------------------------

Figure 4 
               I....                      go down......
E-------------------------------------------------------------------------------------------------------------------------------
B---------7------------------------9--------------------------------------------------------------------------------------------
G---------7------------------------9--------------------------------------------------------------------------------------------
D-------------------------------------------------------------------------------------------------------------------------------
A---------5------------------------7--------------------------------------------------------------------------------------------
e-------------------------------------------------------------------------------------------------------------------------------
guitar tab by miguel resurreccion (hello_miggy@yahoo) enjoy !!!

Comments