Billy Talent - Worker Bees Chords & Tabs

 

Worker Bees Chords & Tabs

Billy Talent Chords & Tabs

Version: 1 Type: Bass Tab

Worker Bees Bass Tab

   
Another song off Billy Talent II. 
I've finally heard the clear version of the song, so this is more proper
than my rough draft. It's got a cool marching sound to the song, so it's pretty good. Try it and Rate! 
Long Live Taborama!

Intro x2
G|------------------------------------|
D|------------------------------------|
A|-3----3---3----3---3----3---3----3--|
D|---55---5---55---5---55---5---55--5-|

Verse: Play Intro:1x

Pre Chorus:2x           Play After 1x           Play After 2x
G|----------------------|-----------------------|-------------------|
D|----------------------|-----------------------|-------------------|
A|-6666-3333-55-66-8888-|-----------33-66-5555--|------2222-33-55-6-|
D|----------------------|-6666-5555-------------|-6666--------------|
[ Tab from: http://www.guitartabs.cc/tabs/b/billy_talent/worker_bees_btab.html ]
Chorus:x3                      Play After 3x
G|-----------------------------|------------------------------|
D|------------------------555--|------------------------------|
A|-888-666-555-----------------|-33---3-11---1----------------|
D|------------666-55-6-5-5-----|----5------3---6-6-6-6-6-6666-|

Verse:x2
Pre-Chorus:x2
Chorus:x3

Post Chorus:2x
G|-------------------------------------------------------------|
D|-------------------------------------------------------------|
A|---------------11-2-1-----------------33---33----------------|
D|-1111-0-1111-66------6-5--1111-0-1111----5----5--55-00-55-00-|

G|----------------------------------|
D|----------------------------------|
A|---11-2-1----33---3-11--1---------|
D|-66------6-5----5------3--6-6-6-6-|

Bridge:2x                                                Play After 1x
G|------------------------------------------------------|------------------|
D|------------------------------------------------------|-5----5---5---5---|
A|-3----3---3----3---5----5---5---5---6---6---6----6----|---55---5---55--5-|
D|---55---5---55---5---88---8---88--8---88--8---88---88-|------------------|

Play After 2x
G|----------|
D|-55555555-|
A|----------|
D|----------|

Post Chorus:2x