Billy Talent - When I Was A Little Girl Chords & Tabs

 

When I Was A Little Girl Chords & Tabs

Billy Talent Chords & Tabs

Version: 1 Type: Bass Tab

When I Was A Little Girl Bass Tab

Song: When I Was A Little Girl
Album: -
Band: Billy Talent
Tabbed By: Masterbasser36

Intro                                      x4
G|----------------------------------------|
D|----------------------------------------|
A|--------------------2/3/2----33-2-------|
E|--2-202020-5-535353------20-------------|

Chorus                                      x4
G|-----------------------------------------| 
D|-----------------------------------------|
A|--------23-33333333-------532-22222222---|
E|--20202--------------3333----------------|
[ Tab from: http://www.guitartabs.cc/tabs/b/billy_talent/when_i_was_a_little_girl_btab.html ]
Verse                                      x2
G|----------------------------------------|
D|----------------------------------------|
A|--------------------2/3/2----33-2-------|
E|--2-202020-5-535353------20-------------|

Chorus                                      x4
G|-----------------------------------------| 
D|-----------------------------------------|
A|--------23-33333333-------532-22222222---|
E|--20202--------------3333----------------|

Bridge                        x3   
G|---------||----------------------------------------|
D|---------||----------------------------------------|
A|-no bass-||------------------3-3-2-2-0-0-2-2-------|
E|---------||--0-0-2-2-4-4-5-5-----------------------|

Ending
G|--------|
D|--------|
A|--------|
E|--2~----|

Another great Billy Talent song!
Hope You Enjoy!