Billy Talent - Warmth Of Windows Chords & Tabs

 

Warmth Of Windows Chords & Tabs

Billy Talent Chords & Tabs

Version: 1 Type: Bass Tab

Warmth Of Windows Bass Tab

Take note, I just wrote down the notes, so, some of the notes are leading and faster, I 
include the timing.

----------------------------------------------------------------------------
			     Warmth of Windows - Billy Talent/Pezz
----------------------------------------------------------------------------

Tabbed By : Jenny
e-mail: friendly_feline_14@hotmail.com

Intro
G|--------------------------|
D|----------------1111------|
A|-1111-2222-4444-----------|
E|---------------------2----|

Riff #1
G|-----------------------------------------|
D|----------------1111---------------------|
A|-1111-2222-4444------1111----------------|
E|--------------------------4444-2222-4444-|

Riff#2
G|---------------------3333----------------|
D|----------------1111-----1111----1111----|
A|-1111-2222-4444--------------4444--------|
E|-----------------------------------------|
[ Tab from: http://www.guitartabs.cc/tabs/b/billy_talent/warmth_of_windows_btab.html ]
Riff#3
G|-----------|
D|------134--|
A|---124-----|
E|-24--------|

Riff#4
G|-------------------------------------|
D|-4444----1111--------------------34--|
A|-----4444----2222-----4444-----04----|
E|-----------------5555------2222------|

Riff#5
G|-----------------------------------|
D|----------------------1111---------|
A|----------111122221111--------4444-|
E|-222244444----------------4444-----|

End
G|-0-------------|
D|--4------------|
A|----4----------|
E|------4-2------|

Intro: 2x
Riff #1: 5x (intro/verse 1)
Riff #2: 1x (pre chorus)
Riff #1: 4x (chorus)
Riff #2: 1x (post chorus)
Riff #1: 3x (verse 2)
Riff #2: 1x (pre chorus)
Riff #1: 4x (chorus)
 "A scritchin....." come in for Riff 3 at "alone"
Riff #3: 1x
Riff #4: 8x
Riff #5: 4x
End: 1x

The second half of the chorus might actually be the second half of Riff #5, you'll just 
to fool around and see if im anywhere close