Billy Talent - Voices Of Violence Chords & Tabs

 

Voices Of Violence Chords & Tabs

Billy Talent Chords & Tabs

Version: 1 Type: Tab 0 ratings
1 star 2 stars 3 stars 4 stars 5 stars
comments

Voices Of Violence Tab

   
-------------------------------------------------------------------------------
			     Voices Of Violence - Billy Talent
-------------------------------------------------------------------------------
Tabbed by: Josh Bolster
Email: CourageandCaution@hotmail.com

Tuning: Drop D(dagbe)

chours&Intro
e|------------------------------------------------------------------|
B|--6---6---6---6---5---5---3---3----3---3---5---5---1---1---3---3--|
G|--7---7-7777777-5555555-3333333----2---2-5555555-2222222-3333333--|
D|5555555-7777777-5555555-3333333--0000000-5555555-2222222-3333333--|
A|5555555-5555555-3333333-1111111--0000000-3333333-0000000-1111111--|
E|5555555--------------------------0000000--------------------------|
[ Tab from: http://www.guitartabs.cc/tabs/b/billy_talent/voices_of_violence_tab.html ]
Verse
e|--------------------------------------------|
B|5-55-6-66-8-88-6-66-5-55-6-66-8-88-10-1010--|
G|0-00-0-00-0-00-0-00-0-00-0-00-0-00-0--0-0---|
D|x-xx-x-xx-x-xx-x-xx-x-xx-x-xx-x-xx-x--x-x---|
A|4-44-5-55-7-77-5-55-4-44-5-55-7-77-8--8-8---|
E|--------------------------------------------|

bridge thingy
e|-------------------------------|
B|----------5-5555-5555-5-5-5555-|
G|----------6-0606-0606-6-6-0606-|
D|7-5-------x-xxxx-xxxx-x-x-xxxx-|
A|---8-7--7-7-7777-7777-7-7-7777-|
E|--------7-7-7777-7777-7-7-7777-|

solo or something
e|0/0-00-0/0-00-00-0/0-0-00----|
B|5/6-55-5/6-55-66-6/8-6-66----|
G|6/7-66-6/7-66-77-7/9-7-77----|
D|-----------------------------|
A|-----------------------------|
E|-----------------------------|


| /  slide up
| \  slide down
| h  hammer-on
| p  pull-off
| ~  vibrato
| +  harmonic
| x  Mute note
============================================================================
Comments