Billy Talent - Try Honesty Chords & Tabs

 

Try Honesty Chords & Tabs

Billy Talent Chords & Tabs

Version: 2 Type: Bass Tab 0 ratings
1 star 2 stars 3 stars 4 stars 5 stars
comments

Try Honesty Bass Tab

   
Billy Talent: Try Honesty
Tabbed by PodS.
E-mail: penny_dreadfullz@hotmail.com
Emotional Hardcore forever.
Bass Tab>
Drop D your bass.

Key: /slide down
     R Rest
     ~ let ring.

Intro (guitar plays riff twice before bass enters)

G|-------------------------------|
D|-------------------------------|
A|-4-4-R-4-4-4-4-R-2-2-R-2-2-2-2-|      x2
D|-------------------------------|

Verse:

G|-----------7--7/9--------------9------|
D|-4--4----------------4--4-------------|
A|------5--5----------------5--5--------|     x4
D|--------------------------------------|

Chorus:

G|---------------------------------------6-6-6-6------------------|
D|-------------------------------4-4-4-4---------2-2-2-2-4-4-4-4--|
A|-4-4-R-4-4-4-4-R-2-2-R-2-2-2-2----------------------------------| x4
D|----------------------------------------------------------------|

Breakdown: part one (rests are for guitar fills)
[ Tab from: http://www.guitartabs.cc/tabs/b/billy_talent/try_honesty_btab_ver_2.html ]
G|-----------------------------------------------|
D|-4-4-4-4-R-2-2-2-2-R-3-3-3-3-R-2-2-2-2---------|
A|--------------------------------------2-2-2-2--| x4
D|-----------------------------------------------|

Breakdown: part two, many times under lead riff
 (I'm insane, its your fault!)
G|-----------------------------------------------------|
D|-----------------------------------------------------|
A|-----------------------------------------------------|
D|-4-4-2-4-2-4-2-0-0-0-0-0-0-3-2-3-2-3-2-5-0-0-0-0-0-5-|

   Then Bridge:
G|----------------------------------------------------|
D|----------------------------------------------------|
A|-0/---14---12---7---9---7---9-----------------------| x2
D|----------------------------------------------------|

G|--------------------------------------------------------|
D|--------------------------------------------------------|
A|-14-14-14-14-14-14-12-12-12-12-12-7-7-7-7-7-9-9-9-7-7-7-|
D|--------------------------------------------------------|

Then Chrous again for last time.

End on.

G|----|
D|----|
A|--2~|
G|----|

Amen.
Enjoy.
P.s seems alot written down but when you get the outline of it its quite easy.
Comments