Billy Talent - Try Honesty Chords & Tabs

 

Try Honesty Chords & Tabs

Billy Talent Chords & Tabs

Version: 1 Type: Bass Tab 0 ratings
1 star 2 stars 3 stars 4 stars 5 stars
comments

Try Honesty Bass Tab

   
               Drop D tuning ( D,A,D,G) ~= let it ring
Intro
G ------------------------------------------------------------------------
D ------------------------------------------------------------------------
A ------------------------------------------------------------------------
D -4-4-4-4-4-4-4-4-0-0-0-0-4-4--------------------------------------------


  2x ( 0:06 )
G ------------------------------------------------------------------------
D ------------------------------------------------------------------------
A ------------------------------------------------------------------------
D -9-9--9-9-9-9---7-7---7-7-7-7--77--4-4-4-4-4-4-4-4--2-2-2-2-2-2-2-2-----

  11x (0:17)
G ------------------------------------------------------------------------
D ------------------------------------------------------------------------
A ------------------------------------------------------------------------
D --4/0-------------------------------------------------------------------

 1x (0:52)
G ------------------------------------------------------------------------
D ------------------------------------------------------------------------
A ------------------------------------------------------------------------
D -9-9--9-9--9-7-7--7-7--7----4-4-4-4-4-4-4-4-2-2-2-2-2-2-2-2-------------

 4x (1:04)
G ------------------------------------------------------------------------
D ------------------------------------------------------------------------
A ------------------------------------------------------------------------
D -4~----------------------------------------------0~---------------------

  4x (1:16)
G ------------------------------------------------------------------------
D ------------------------------------------------------------------------
A ------------------------------------------------------------------------
D -9-9--9-9--9--7-7--7-7--7----4-4-4-4-4-4-4-4-2-2-2-2-2-2-2-2------------
[ Tab from: http://www.guitartabs.cc/tabs/b/billy_talent/try_honesty_btab.html ]
  2x (2:05)
G ------------------------------------------------------------------------
D ------------------------------------------------------------------------ 
A ------------------------------------------------------------------------
D -4-4-4-4-*guitar*-0-0-0-0-*guitar*-3-3-3-3-*guitar*-0-0-0-0-------------

  3x (2:17)
G ------------------------------------------------------------------------
D ------------------------------------------------------------------------
A ------------------------------------------------------------------------
D -4-4-2-4-6-4-2-4-0-0-*guitar*-3-3-0-3-5-3-2-2-0-0-*guitar*--------------

  1x (2:35)
G ------------------------------------------------------------------------
D ------------------------------------------------------------------------
A ------------------------------------------------------------------------
D -4-4-2-4-6-4-2-4-0-0-*guitar*-3-3-3-3-3-3-3-3-4-4-4-4-4-4---------------

  5x (2:44)
G ------------------------------------------------------------------------
D ------------------------------------------------------------------------
A -------4--2--4----------------------------------------------------------
D -4--2-------------------------------------------------------------------

 4x (3:14)
G ------------------------------------------------------------------------
D ------------------------------------------------------------------------
A ------------------------------------------------------------------------
D -9-9--9-9-9-9--7-7--7-7-7-7--4-4--4-4-4-4--2-2--2-2-2-------------------

  3x (3:39)
G ------------------------------------------------------------------------
D ------------------------------------------------------------------------
A ----7-9-7---5-7-5-------------------------------------------------------
D -9---------7---------4-4-4-4-4-4-4-4-2-2-2-2-2-2-2-2--------------------

  1x (3:57)
G ------------------------------------------------------------------------
D ------------------------------------------------------------------------
A ----7-9-7---5-7-5---2-4-2---0-2-0---------------------------------------
D ---9-------7-------4-------2------------4~~-----------------------------
Comments