Billy Talent - Try Honesty Acoustic Chords & Tabs

 

Try Honesty Acoustic Chords & Tabs

Billy Talent Chords & Tabs

Version: 1 Type: Tab 0 ratings
1 star 2 stars 3 stars 4 stars 5 stars
comments

Try Honesty Acoustic Tab

Tabbed by stuneen
Contact: stubert16@hotmail.com
Check Scandalous Travellers for the acoustic audio
This works for non-acoustic as well
Please rate!

::::::INTRO::::::
play once
|----------|-----------|-----------|---------|
|--2----2--|---2----2--|---0----0--|--5------|
|---2----2-|----2----2-|--2-2--2-2-|-4-4-4-6-|
|-0----0---|--2----2---|-4----4----|6---6-7--|
|2----2----|-0----0----|-----------|---------|
|----------|-----------|-----------|---------|

then this once
|----------|-----------|-----------|---------|
|--2----2--|---2----2--|-0000000---|-5555----|
|---2----2-|----2----2-|-2222222---|-444466--|
|-0----0---|--2----2---|-4444444---|-666677--|
|2----2----|-0----0----|-----------|---------|
|----------|-----------|-----------|---------|

three times                          
|--------|---------|----5---------7--|
|22-22222|-22-22222|-----6--------7--|
|--------|-22-22222|------7b-6-7/4x--|
|22-22222|-22-22222|-4~------0----0--|
|22-22222|---------|-4~------0-------|
|--------|---------|-4~4-----0-------|

this part once more
|---5---------7--|
|----6--------7--|
|-----7b-6-7/4x--|
|4-------0----0--|
|4-------0-------|
|4-4-----0-------|

:::::::VERSE:::::::
play eight times
|-----2222--|
|-----3333--|
|-----2222--|
|444440000--|
|444440000--|
|444440000--|

:::::::CHORUS::::::::
four times
|--------|---------|----------|-----------|
|22-22222|-22-22222|----------|-----------|
|--------|-22-22222|----------|-----------|
|22-22222|-22-22222|-77-6-440-|-55-4-220--|
|22-22222|---------|-44-4-440-|-22-2-220--|
|--------|---------|-44-4-440-|-22-2-220--|
forgive me...	   try honesty...
                   ride over me...
		   die tragedy...
		   cry agony...

then play twice
|---5---------7--|
|----6--------7--|
|-----7b-6-7/4x--|
|4-------0----0--|
|4-------0-------|
|4-4-----0-------|

:::::::VERSE::::::::
play eight times
|--------|
|-----3--|
|-----2--|
|44444---|
|44444---|
|44444---|

:::::::CHORUS::::::::
four times
|--------|---------|----------|-----------|
|22-22222|-22-22222|----------|-----------|
|--------|-22-22222|----------|-----------|
|22-22222|-22-22222|-77-6-440-|-55-4-220--|
|22-22222|---------|-44-4-440-|-22-2-220--|
|--------|---------|-44-4-440-|-22-2-220--|
forgive me...	   try honesty...
                   ride over me...
		   die tragedy...
		   cry agony...
[ Tab from: http://www.guitartabs.cc/tabs/b/billy_talent/try_honesty_acoustic_tab.html ]
::::::::BRIDGE:::::::::
play twice
|-----5b-5------9b---------5b-5------------|
|-----5b-5------7b---------5b-5------2b----|
|-----5b-5------7b---------5b-5------2b----|
|4444------0000----0--3333------0000----0--|
|4444------0000----0--3333------0000-2b-0--|
|4444------0000----0--3333------0000----0--|
                                    (screaming)

three times, 2 endings      /ending 1 played the first 2 times\/   ending 2   \
|--------------------------|---------------------|-----------|--------22222222|
|--------------------------|---------------------|2b---------|--------33333333|
|:-------------------------|---------------------|2b---------|--------22222222|
|----------------0--0----0-|-----------------0-0-|--0--------|3333333300000000|
|----------0-----0--0-5b-0-|-----------------0-0-|2b0--------|3333333300000000|
|-4--4-2-4---4-2-0--0----0-|-3--3-2-3-5-3-2--0-0-|--0--------|33333333--------|
I'm in insane....            cryyy....


play three times
|----------|-----------|-----------|---------|
|--2----2--|---2----2--|---0----0--|--5------|
|---2----2-|----2----2-|--2-2--2-2-|-4-4-4-6-|
|-0----0---|--2----2---|-4----4----|6---6-7--|
|2----2----|-0----0----|-----------|---------|
|----------|-----------|-----------|---------|

then this once
|----------|-----------|-----------|---------|
|--2----2--|---2----2--|-0000000---|-5555----|
|---2----2-|----2----2-|-2222222---|-444499--|
|-0----0---|--2----2---|-4444444---|-666677--|
|2----2----|-0----0----|-----------|---------|
|----------|-----------|-----------|---------|

:::::::CHORUS/ENDING::::::::
four times
|--------|---------|----------|-----------|
|22-22222|-22-22222|----------|-----------|
|--------|-22-22222|----------|-----------|
|22-22222|-22-22222|-77-6-440-|-55-4-220--|
|22-22222|---------|-44-4-440-|-22-2-220--|
|--------|---------|-44-4-440-|-22-2-220--|
forgive me...	   try honesty...
                   ride over me...
		   die tragedy...
		   cry agony...

strumming speeds up for three times of this
|--------|---------|----------|-----------|
|22-22222|-22-22222|----------|-----------|
|--------|-22-22222|----------|-----------|
|22-22222|-22-22222|-77-6-440-|-55-4-220--|
|22-22222|---------|-44-4-440-|-22-2-220--|
|--------|---------|-44-4-440-|-22-2-220--|
               	   cry agony...

then slows down for this last one
|--------|---------|--------|-------|
|22-22222|-22-22222|--------|-------|
|--------|-22-22222|--------|-------|
|22-22222|-22-22222|-7777---|55555--|
|22-22222|---------|-4444---|02222--|
|--------|---------|-4444---|02222--|

ends on
|----|
|2---|
|2---|
|----|
|2---|
|----|
Comments