Billy Talent - This Suffering Chords & Tabs

 

This Suffering Chords & Tabs

Billy Talent Chords & Tabs

Version: 2 Type: Tab

This Suffering Tab

-Tabbed by Mike Tucker
-
-Not 100% right but its close, if anyone has any comments/questions email me
-at tucker42087@yahoo.com. Usuall BT tuning is in dropped D, not hard to see -the 
if you wanna play it in that tuning.

Intro

Gtr I
E|---------------8-----------------------------------------||
B|----10-------8------6-8----------------------------------||
G|-10----10--9------7--------------------------------------||
D|----------------8----------------------------------------||
A|---------------------------------------------------------||
E|---------------------------------------------------------||

Gtr II?
E|---------------------------------------------------------||
B|---------------------------------------------------------||
G|-7-77-----5-55-------------------------------------------||
D|-7-77-----5-55--5-5-5-5---------7------------------------||
A|-5-55-----3-33--5-5-5-5-8-7-5---7------------------------||
E|----------------3-3-3-3-------8-5------------------------||


V1

Gtr I
E|-5------5------------------------------------------------||
B|-6------5-----------6-8----------------------------------||
G|-7------5---------7--------------------------------------||
D|-7------5-------8----------------------------------------||
A|-5------3------------------------------------------------||
E|---------------------------------------------------------||

Gtr II?
E|---------------------------------------------------------||
B|---------------------------------------------------------||
G|---------------------------------------------------------||
D|----------------5-5-5-5---------7------------------------||
A|----------------5-5-5-5-8-7-5---7------------------------||
E|----------------3-3-3-3-------8-5------------------------||

v2

Gtr I
E|-55-5---55-5---------------------------------------------||
B|-66-6---55-5--------6-8----------------------------------||
G|-77-7---55-5------7--------------------------------------||
D|-77-7---55-5----8----------------------------------------||
A|-55-5---33-3---------------------------------------------||
E|---------------------------------------------------------||
[ Tab from: http://www.guitartabs.cc/tabs/b/billy_talent/this_suffering_tab_ver_2.html ]
Gtr II?
E|---------------------------------------------------------||
B|---------------------------------------------------------||
G|-7-77-----5-55-------------------------------------------||
D|-7-77-----5-55--5-5-5-5---------7------------------------||
A|-5-55-----3-33--5-5-5-5-8-7-5---7------------------------||
E|----------------3-3-3-3-------8-5------------------------||


Pre chorus

Gtr I
E|--------------------------------------------------------||
B|--------------------------------------------------------||
G|--7-7-7-7-7-7-9-10---7-7-7-7-7-7-9-10-------------------||
D|---8-8-8-8-8-8-8--8---7-7-7-7-7-7-7--7------------------||
A|--------------------------------------------------------||
E|--------------------------------------------------------||

Gtr I
E|--------------------------------------------------------||
B|--11--11--------------11--11----------------------------||
G|-----------8----9--------------8----9-------------------||
D|----12--12---12---12----12--12---12---12----------------||
A|--------------------------------------------------------||
E|--------------------------------------------------------||

Gtr I
E|--------------------------------------------------------||
B|-10----10----10----10-----------------------------------||
G|----10----10----10----10---9----9----9----9-------------||
D|-----------------------------10---10---10---10----------||
A|--------------------------------------------------------||
E|--------------------------------------------------------||


Chorus

Gtr II?
E|------------------------------------------------------||
B|------------------------------------------------------||
G|---------7--------------------5-----------------------||
D|-8-------7-x16--5------3------5-----------------------||
A|-8-x16---5------5-x16--3-x12--3-----------------------||
E|-6--------------3------1------------------------------||


-Bridge-


Gtr I
E|-10-10-10--12-12-12--10-10-10-----8-8-8--10-10-10--8-8-8--||
B|-10-10-10--10-10-10--10-10-10-----8-8-8--8--8--8---8-8-8--||
G|-10-10-10--10-10-10--10-10-10-----9-9-9--9--9--9---9-9-9--||
D|----------------------------------------------------------||
A|----------------------------------------------------------||
E|----------------------------------------------------------||

Gtr I
E|-6-6-6--8-8-8--6-6-6----10--------------------------------||
B|-6-6-6--6-6-6--6-6-6----8-x16-----------------------------||
G|-7-7-7--7-7-7--7-7-7----9---------------------------------||
D|----------------------------------------------------------||
A|----------------------------------------------------------||
E|----------------------------------------------------------||