Billy Talent - This Is How It Goes Chords & Tabs

 

This Is How It Goes Chords & Tabs

Billy Talent Chords & Tabs

Version: 6 Type: Tab 0 ratings
1 star 2 stars 3 stars 4 stars 5 stars
comments

This Is How It Goes Tab

this is my first tab so if i have made any mistakes then email me
at esprawnso@hotmail.com

e------------------------------------------------------------
b------------------------------------------------------------
g------------------------------------------------------------
d-----------------222-33-------------------------------------x3
a--55555555-44444--------------------------------------------
E------------------------------------------------------------

e------------------------------------------------------------
b------------------------------------------------------------
g------------------------------------------------------------
d---------------------7/3-3----------------------------------x1
a---------------------7/3-3----------------------------------
E--55555555-44444-----5/1-1----------------------------------

e--------5--------6--------1---5-5-5-5-----------------------
b--------6--------6--------1---5-5-5-5-----------------------
g--7-7-7-7--------7--------2---6-6-5-5-----------------------
d--7-7-7-7--8-8-8-8--3-3-3-3---7-7-5-5-----------------------x4
a--5-5-5-5--8-8-8-8--3-3-3-3---7-7-5-5-----------------------
E-----------6-6-6-6--1-1-1-1---5-5-5-5-----------------------

e------------------------------------------------------------
b------------------------------------------------------------
g------------------------------------------------------------
d----------------------2222-33-------------------------------x3
a------55555555--44444---------------------------------------
E------------------------------------------------------------
[ Tab from: http://www.guitartabs.cc/tabs/b/billy_talent/this_is_how_it_goes_tab_ver_6.html ]
e--------5--------6--------1---5-5-5-5-----------------------
b--------6--------6--------1---5-5-5-5-----------------------
g--7-7-7-7--------7--------2---6-6-5-5-----------------------
d--7-7-7-7--8-8-8-8--3-3-3-3---7-7-5-5-----------------------x4
a--5-5-5-5--8-8-8-8--3-3-3-3---7-7-5-5-----------------------
E-----------6-6-6-6--1-1-1-1---5-5-5-5-----------------------

e-5-5-5---5-5---6-6-6---6-6---1-1-1---1-1---5-5-5---5-5-------
b-6-6-6---6-6---6-6-6---6-6---1-1-1---1-1---5-5-5---5-5-------
g-7-7-7---7-7---7-7-7---7-7---2-2-2---2-2---6-6-6---6-6-------
d-7-7-7---7-7---8-8-8---8-8---3-3-3---3-3---7-7-7---7-7-------x8
a-5-5-5---5-5---8-8-8---8-8---3-3-3---3-3---7-7-7---7-7-------
E---------------6-6-6---6-6---1-1-1---1-1---5-5-5---5-5-------

e------------------------------------------------------------
b------------------------------------------------------------
g------------------------------------------------------------
d---------------------7/3-3----------------------------------x1
a---------------------7/3-3----------------------------------
E--55555555-44444-----5/1-1----------------------------------

e--------5--------6--------1---5-5-5-5-----------------------
b--------6--------6--------1---5-5-5-5-----------------------
g--7-7-7-7--------7--------2---6-6-5-5-----------------------
d--7-7-7-7--8-8-8-8--3-3-3-3---7-7-5-5-----------------------x4
a--5-5-5-5--8-8-8-8--3-3-3-3---7-7-5-5-----------------------
E-----------6-6-6-6--1-1-1-1---5-5-5-5-----------------------

thats what i got out of it if you can find more knock yourself
out. have fun and rock on.
Comments