Billy Talent - The Navy Song Chords & Tabs

 

The Navy Song Chords & Tabs

Billy Talent Chords & Tabs

Version: 1 Type: Tab 0 ratings
1 star 2 stars 3 stars 4 stars 5 stars
comments

The Navy Song Tab

   
Billy Talent - THe Navy song


drop D tuning again for this song 


INTRO

e|----------------------12p0----10p0------------------------|
B|------10p0----12p0--------------------12p0----10p0----12--|
G|----9-----------------------------------------------------|
D|-10--------10------10------10------10------10------10-----|
A|----------------------------------------------------------|
D|----------------------------------------------------------|


e|-----------------8p0---7p0--------------------------------|
B|-----7p0---8p0---------------8p0---7p0---0---0------------|
G|---5------------------------------------------------------|
D|-7-------7-----7-----7-----7-----7-----7---7--------------|
A|----------------------------------------------------------|
D|----------------------------------------------------------|

e|----------------------12p0----10p0------------------------|
B|------10p0----12p0--------------------12p0----10p0----12--|
G|----9-----------------------------------------------------|
D|-10--------10------10------10------10------10------10-----|
A|----------------------------------------------------------|
D|----------------------------------------------------------|


e|-----------------8p0---7p0---------5-5-5-5-5-5------------|
B|-----7p0---8p0---------------8p0---7-7-7-7-7-7------------|
G|---5-------------------------------5-5-5-5-5-5------------|
D|-7-------7-----7-----7-----7-----7-7-7-7-7-7-7------------|
A|----------------------------------------------------------|
D|----------------------------------------------------------|

VERSE


e|----5------------2------------5------------2-----|
B|----3------------0------------3------------0-----|
G|----0------------0------------0------------0-----|
D|----5------------2------------5------------2-----|
A|----x------------2------------x------------2-----|
D|----5------------2------------5------------2-----|


(up and downstrokes for this bit)
   [         12          ][          12           ]
e|-0-0-0-0-0-0-0-0-0-0-0-0-2-2-2-2-2-2-3-3-3-3-3-3-|
B|-1-1-1-1-1-1-1-1-1-1-1-1-1-1-1-1-1-1-1-1-1-1-1-1-|
G|-0-0-0-0-0-0-0-0-0-0-0-0-0-0-0-0-0-0-0-0-0-0-0-0-|
D|-2-2-2-2-2-2-2-2-2-2-2-2-2-2-2-2-2-2-2-2-2-2-2-2-|
A|-3-3-3-3-3-3-3-3-3-3-3-3-3-3-3-3-3-3-3-3-3-3-3-3-|
D|-------------------------------------------------|


e|-7-7-7-7-7-7-5-5-5-5-5-5-3-3-3-3-3-3-5-5-5-5-5-5-|
B|-5-5-5-5-5-5-5-5-5-5-5-5-3-3-3-3-3-3-5-5-5-5-5-5-|
G|-7-7-7-7-7-7-5-5-5-5-5-5-4-4-4-4-4-4-5-5-5-5-5-5-|
D|-------------------------------------------------|
A|-------------------------------------------------|
D|-------------------------------------------------|


e|----5------------2------------5------------2-----|
B|----3------------0------------3------------0-----|
G|----0------------0------------0------------0-----|
D|----5------------2------------5------------2-----|
A|----x------------2------------x------------2-----|
D|----5------------2------------5------------2-----|


BRIDGE

e|----------------------12p0----10p0------------------------|
B|------10p0----12p0--------------------12p0----10p0----12--|
G|----9-----------------------------------------------------|
D|-10--------10------10------10------10------10------10-----|
A|----------------------------------------------------------|
D|----------------------------------------------------------|


e|-----------------8p0---7p0--------------------------------|
B|-----7p0---8p0---------------8p0---7p0---0---0------------|
G|---5------------------------------------------------------|
D|-7-------7-----7-----7-----7-----7-----7---7--------------|
A|----------------------------------------------------------|
D|----------------------------------------------------------|

e|-----------------7p0---5p0-------------------|
B|-----5p0---7p0---------------7p0---5p0---7---|
G|---4-----------------------------------------|
D|-5-------5-----5-----5-----5-----5-----5-----|
A|---------------------------------------------|
D|---------------------------------------------|


THEN PLAY THIS:

e|--------------------------------------|
B|--------------------------------------|
G|-6-6--6-6-6--6--6-6-7--7--7-7-6--6--6-|
D|-4-4--4-4-4--4--4-4-4--4--4-4-4--4--4-|
A|-4-4--4-4-4--4--4-4-4--4--4-4-4--4--4-|
D|-4-4--4-4-4--4--4-4-4--4--4-4-4--4--4-|


CHORUS


e|-------------------------------------------------------------|
B|-------------------------------------------------------------|
G|-7-7-7-7-7-7-7-7-7-7-7-7-9--9--9--9--9--9--11-11-11-11-11-11-|
D|-9-9-9-9-9-9-9-9-9-9-9-9-11-11-11-11-11-11-12-12-12-12-12-12-|
A|-9-9-9-9-9-9-9-9-9-9-9-9-11-11-11-11-11-11-12-12-12-12-12-12-|
D|-9-9-9-9-9-9-9-9-9-9-9-9-11-11-11-11-11-11-12-12-12-12-12-12-|

e|---------------------------------------------|
B|---------------------------------------------|
G|---------------------------------------------|
D|-5--5-9-7-5-5--5-9-7-5-5--5-9-7-5-5--5-9-7-5-|
A|-5--5-------5--5-------5--5-------5--5-------|
D|-5--5-------5--5-------5--5-------5--5-------|

e|-------------------------------------------------|
B|-------------------------------------------------|
G|-7-7-7-7-7-7-7-7-7-7-7-7-9-9-9-9-9-9-111111111111|
D|-0-0-0-0-0-0-0-0-0-0-0-0-0-0-0-0-0-0-0-0-0-0-0-0-|
A|-0-0-0-0-0-0-0-0-0-0-0-0-0-0-0-0-0-0-0-0-0-0-0-0-|
D|-0-0-0-0-0-0-0-0-0-0-0-0-0-0-0-0-0-0-0-0-0-0-0-0-|
[ Tab from: http://www.guitartabs.cc/tabs/b/billy_talent/the_navy_song_tab.html ]
e|------------------------------------------|
B|------------------------------------------|
G|-6-6--6-6-6--6--6-6-7--7--7-7-6-6-6-6-6-6-|
D|-4-4--4-4-4--4--4-4-4--4--4-4-4-4-4-4-4-4-|
A|-4-4--4-4-4--4--4-4-4--4--4-4-4-4-4-4-4-4-|
D|-4-4--4-4-4--4--4-4-4--4--4-4-4-4-4-4-4-4-|

repeat once

THEN THESE CHORDS

e|-0--0--2--3-7-7-7-7-7-7-5-5-5-5-5-5-3-3-3-3-3-3-5-5-5-5-5-5-|
B|-1--1--1--1-5-5-5-5-5-5-5-5-5-5-5-5-3-3-3-3-3-3-5-5-5-5-5-5-|
G|-0--0--0--0-7-7-7-7-7-7-5-5-5-5-5-5-4-4-4-4-4-4-5-5-5-5-5-5-|
D|-2--2--2--2-------------------------------------------------|
A|-3--3--3--3-------------------------------------------------|
D|------------------------------------------------------------|

VERSE, BRIDGE & CHORUS again


MIDDLE BIT

e|-0--0-0-0-0-0--0-0-0-0-2--2-2-2-2-3--3-3-3-3-|
B|-1--1-1-1-1-1--1-1-1-1-1--1-1-1-1-1--1-1-1-1-|
G|-0--0-0-0-0-0--0-0-0-0-0--0-0-0-0-0--0-0-0-0-|
D|-2--2-2-2-2-2--2-2-2-2-2--2-2-2-2-2--2-2-2-2-|
A|-3--3-3-3-3-3--3-3-3-3-3--3-3-3-3-3--3-3-3-3-|
D|---------------------------------------------|


e|-7-7-7-7-7-7-5-5-5-5-5-5-3-3-3-3-3-3-5-5-5-5-5-5-|
B|-5-5-5-5-5-5-5-5-5-5-5-5-3-3-3-3-3-3-5-5-5-5-5-5-|
G|-7-7-7-7-7-7-5-5-5-5-5-5-4-4-4-4-4-4-5-5-5-5-5-5-|
D|-------------------------------------------------|
A|-------------------------------------------------|
D|-------------------------------------------------|
                      
e|-0--0-0-0-0-0--0-0-0-0-2--2-2-2-2-3--3-3-3-3-|
B|-1--1-1-1-1-1--1-1-1-1-1--1-1-1-1-1--1-1-1-1-|
G|-0--0-0-0-0-0--0-0-0-0-0--0-0-0-0-0--0-0-0-0-|
D|-2--2-2-2-2-2--2-2-2-2-2--2-2-2-2-2--2-2-2-2-|
A|-3--3-3-3-3-3--3-3-3-3-3--3-3-3-3-3--3-3-3-3-|
D|---------------------------------------------|


e|-7-7-7-7-7-7-5-5-5-5-5-5-3-3-3-3-3-3-5-5-5-5-5-5-|
B|-5-5-5-5-5-5-5-5-5-5-5-5-3-3-3-3-3-3-5-5-5-5-5-5-|
G|-7-7-7-7-7-7-5-5-5-5-5-5-4-4-4-4-4-4-5-5-5-5-5-5-|
D|-------------------------------------------------|
A|-------------------------------------------------|
D|-------------------------------------------------|
                                              

e|-10--10-10-10-10-10--8--8--8--8--8---7--7--7--7--7---8--8--8--8--|
B|-8---8--8--8--8--8---8--8--8--8--8---8--8--8--8--8---8--8--8--8--|
G|-9---9--9--9--9--9---9--9--9--9--9---9--9--9--9--9---9--9--9--9--|
D|-10--10-10-10-10-10--10-10-10-10-10--10-10-10-10-10--10-10-10-10-|
A|-----------------------------------------------------------------|
D|-----------------------------------------------------------------|


e|-12-12-12-12-12-12-10-10-10-10-10-10-8-8-8-8-8-8-10-10-10-10-10-10-|
B|-10-10-10-10-10-10-10-10-10-10-10-10-8-8-8-8-8-8-10-10-10-10-10-10-|
G|-12-12-12-12-12-12-10-10-10-10-10-10-9-9-9-9-9-9-10-10-10-10-10-10-|
D|-------------------------------------------------------------------|
A|-------------------------------------------------------------------|
D|-------------------------------------------------------------------|
                                  

e|-10--10-10-10-10-10--8--8--8--8--8---7--7--7--7--7---8--8--8--8--|
B|-8---8--8--8--8--8---8--8--8--8--8---8--8--8--8--8---8--8--8--8--|
G|-9---9--9--9--9--9---9--9--9--9--9---9--9--9--9--9---9--9--9--9--|
D|-10--10-10-10-10-10--10-10-10-10-10--10-10-10-10-10--10-10-10-10-|
A|-----------------------------------------------------------------|
D|-----------------------------------------------------------------|


e|-12-12-12-12-12-12-10-10-10-10-10-10-8-8-8-8-8-8-7-7-7-7-7-7-|
B|-10-10-10-10-10-10-10-10-10-10-10-10-8-8-8-8-8-8-8-8-8-8-8-8-|
G|-12-12-12-12-12-12-10-10-10-10-10-10-9-9-9-9-9-9-9-9-9-9-9-9-|
D|-------------------------------------------------------------|
A|-------------------------------------------------------------|
D|-------------------------------------------------------------|
                               

REPEAT BRIDGE 
       CHORUS
       

LAST CHORUS (slight variation)


e|-------------------------------------------------------------|
B|-------------------------------------------------------------|
G|-7-7-7-7-7-7-7-7-7-7-7-7-9--9--9--9--9--9--11-11-11-11-11-11-|
D|-9-9-9-9-9-9-9-9-9-9-9-9-11-11-11-11-11-11-12-12-12-12-12-12-|
A|-9-9-9-9-9-9-9-9-9-9-9-9-11-11-11-11-11-11-12-12-12-12-12-12-|
D|-9-9-9-9-9-9-9-9-9-9-9-9-11-11-11-11-11-11-12-12-12-12-12-12-|

e|-------------------------------------------------------------|
B|-------------------------------------------------------------|
G|-10--10-x-10-10-10--10-x-10-10-10--10-x-10-10-10--10-x-10-10-|
D|-10--10-x-10-10-10--10-x-10-10-10--10-x-10-10-10--10-x-10-10-|
A|-9---9--x-9--9--9---9--x-9--9--9---9--x-9--9--9---9--x-9--9--|
D|-------------------------------------------------------------|

e|-------------------------------------------------|
B|-------------------------------------------------|
G|-7-7-7-7-7-7-7-7-7-7-7-7-9-9-9-9-9-9-111111111111|
D|-0-0-0-0-0-0-0-0-0-0-0-0-0-0-0-0-0-0-0-0-0-0-0-0-|
A|-0-0-0-0-0-0-0-0-0-0-0-0-0-0-0-0-0-0-0-0-0-0-0-0-|
D|-0-0-0-0-0-0-0-0-0-0-0-0-0-0-0-0-0-0-0-0-0-0-0-0-|

e|------------------------------------------|
B|------------------------------------------|
G|-6-6--6-6-6--6--6-6-7--7--7-7-6-6-6-6-6-6-|
D|-4-4--4-4-4--4--4-4-4--4--4-4-4-4-4-4-4-4-|
A|-4-4--4-4-4--4--4-4-4--4--4-4-4-4-4-4-4-4-|
D|-4-4--4-4-4--4--4-4-4--4--4-4-4-4-4-4-4-4-|
 

LAST BIT

e|----0--2--3--7--5--3--5-5-5-5-5-5---0-|
B|-1--1--1--1--5--5--3--5-5-5-5-5-5---8-|
G|-0--0--0--0--7--5--4--5-5-5-5-5-5---9-|
D|-2--2--2--2-------------------------9-|
A|-3--3--3--3-------------------------7-|
D|--------------------------------------|


enjoy!

CARTER :)

Comments