Billy Talent - The Ex Chords & Tabs

 

The Ex Chords & Tabs

Billy Talent Chords & Tabs

Version: 8 Type: Tab 0 ratings
1 star 2 stars 3 stars 4 stars 5 stars
comments

The Ex Tab

   
i love doing this song, play it or die!

anything messed up, email me - punk_smurf_rocker@hotmail.com
i think there might be some mistakes, but if ur gonna dis me, try tabbing this song yourself first

drop D tuning


[Intro]
e|-----------------------------------|
B|-----------------------------------|
G|-----------------------------------|
D|-7---7---6---4-----7---7---6---4---|
A|-----------------------------------|
D|---4---4---4---4-----0---0---0---0-|

e|-----------------------------------------------------|
B|-----------------------------------------------------|
G|-----------------------------------------------------|
D|-2-2-2-2-2-4-2-0-------------------------------------|
A|-0-0-0-0-0-0-0-0---2-2-2-2-2-4-2-0---2-2-2-2-2-4-2-0-|
D|-------------------0-0-0-0-0-0-0-0---2-2-2-2-2-2-2-2-|

e|-4-4-4-4-4-4-4-4-|
B|-6-6-6-6-6-6-6-6-|
G|-4-4-4-4-4-4-4-4-|
D|-6-6-6-6-6-6-6-6-|
A|-4-4-4-4-4-4-4-4-|
D|-----------------|        [Intro x 2]

[Verse]
e|---------------------------------------------------------------------|
B|---------------------------------------------------------------------|
G|---------------------------------------------------------------------|
D|-7-7-7-7-6-6-4-4-7-7-7-7-6-6-4-4---2-2-2-2-2-4-2-0-------------------|
A|-4-4-4-4-4-4-4-4-0-0-0-0-0-0-0-0---0-0-0-0-0-0-0-0---2-2-2-2-2-4-2-0-|
D|-4-4-4-4-4-4-4-4-0-0-0-0-0-0-0-0---------------------0-0-0-0-0-0-0-0-|
  <<<<<<<<<<<<<<<<<<<<<<<<<<<<<<<>>>>>>>>>>>>>>>>>>>>>>>>>>>>

e|-----------------------------------------------------|
B|-----------------------------------------------------|
G|-----------------------------------------------------|
D|-2-2-2-2-2-4-2-0-------------------------------------|
A|-0-0-0-0-0-0-0-0---2-2-2-2-2-4-2-0---2-2-2-2-2-4-2-0-|
D|-------------------0-0-0-0-0-0-0-0---2-2-2-2-2-2-2-2-|
 <<<<<<<<<>>>>>>>>>>>>>>>>>>>>>>|

e|-4-4-4-4-4-4-4-4-|
B|-6-6-6-6-6-6-6-6-|
G|-4-4-4-4-4-4-4-4-|
D|-6-6-6-6-6-6-6-6-|
A|-4-4-4-4-4-4-4-4-|
D|-----------------|              [Verse x 2]

[Pre-Chorus]
e|-------------------------------------------------4-4-4-4-4-4-4-4-|
B|-------------------------------------------------6-6-6-6-6-6-6-6-|
G|-6-6-6-6-6-6-6-6-4-4-4-4-4-4-4-4-2-2-2-2-2-2-2-2-4-4-4-4-4-4-4-4-|
D|-4-4-4-4-4-4-4-4-2-2-2-2-2-2-2-2-2-2-2-2-2-2-2-2-6-6-6-6-6-6-6-6-|
A|-0-0-0-0-0-0-0-0-0-0-0-0-0-0-0-0-0-0-0-0-0-0-0-0-4-4-4-4-4-4-4-4-|
D|-----------------------------------------------------------------|
  =================================GTR.1===========================

e|-------------------------------------------------4-4-4-4-4-4-4-4-|
B|-------------------------------------------------6-6-6-6-6-6-6-6-|
G|-------------------------------------------------4-4-4-4-4-4-4-4-|
D|-4-4-4-4-4-4-4-4-2-2-2-2-2-2-2-2-7-7-7-7-7-7-7-7-6-6-6-6-6-6-6-6-|
A|-4-4-4-4-4-4-4-4-2-2-2-2-2-2-2-2-7-7-7-7-7-7-7-7-4-4-4-4-4-4-4-4-|
D|-4-4-4-4-4-4-4-4-2-2-2-2-2-2-2-2-7-7-7-7-7-7-7-7-----------------|
  =================================GTR.2===========================

[Chorus]
e|--------------------------------------|
B|------------------------------------7-|
G|-7-76-----7-76-----7-76-------------7-|
D|-7-77-4-4-7-77-4-4-7-77-4-44-2-22-0-7-|
A|-5-55-4-4-5-55-4-4-5-55-4-44-2-22-0---|
D|-0-00-4-4-0-00-4-4-0-00-4-44-2-22-0---|    [x2]


e|----------4-4-4-4-4-4-4-4-|
B|--------7-6-6-6-6-6-6-6-6-|
G|--------7-4-4-4-4-4-4-4-4-|
D|-2-22-0-7-6-6-6-6-6-6-6-6-|
A|-2-22-0---4-4-4-4-4-4-4-4-|
D|-2-22-0-------------------|        [Chorus]

[Verse]
e|---------------------------------------------------------------------|
B|---------------------------------------------------------------------|
G|---------------------------------------------------------------------|
D|-7-7-7-7-6-6-4-4-7-7-7-7-6-6-4-4---2-2-2-2-2-4-2-0-------------------|
A|-4-4-4-4-4-4-4-4-0-0-0-0-0-0-0-0---0-0-0-0-0-0-0-0---2-2-2-2-2-4-2-0-|
D|-4-4-4-4-4-4-4-4-0-0-0-0-0-0-0-0---------------------0-0-0-0-0-0-0-0-|
  <<<<<<<<<<<<<<<<<<<<<<<<<<<<<<<>>>>>>>>>>>>>>>>>>>>>>>>>>>>

e|-----------------------------------------------------|
B|-----------------------------------------------------|
G|-----------------------------------------------------|
D|-2-2-2-2-2-4-2-0-------------------------------------|
A|-0-0-0-0-0-0-0-0---2-2-2-2-2-4-2-0---2-2-2-2-2-4-2-0-|
D|-------------------0-0-0-0-0-0-0-0---2-2-2-2-2-2-2-2-|
 <<<<<<<<<>>>>>>>>>>>>>>>>>>>>>>|

e|-4-4-4-4-4-4-4-4-|
B|-6-6-6-6-6-6-6-6-|
G|-4-4-4-4-4-4-4-4-|
D|-6-6-6-6-6-6-6-6-|
A|-4-4-4-4-4-4-4-4-|
D|-----------------|              [Verse x 2]
[ Tab from: http://www.guitartabs.cc/tabs/b/billy_talent/the_ex_tab_ver_8.html ]
[Pre-Chorus]
e|-------------------------------------------------4-4-4-4-4-4-4-4-|
B|-------------------------------------------------6-6-6-6-6-6-6-6-|
G|-6-6-6-6-6-6-6-6-4-4-4-4-4-4-4-4-2-2-2-2-2-2-2-2-4-4-4-4-4-4-4-4-|
D|-4-4-4-4-4-4-4-4-2-2-2-2-2-2-2-2-2-2-2-2-2-2-2-2-6-6-6-6-6-6-6-6-|
A|-0-0-0-0-0-0-0-0-0-0-0-0-0-0-0-0-0-0-0-0-0-0-0-0-4-4-4-4-4-4-4-4-|
D|-----------------------------------------------------------------|
  =================================GTR.1===========================

e|-------------------------------------------------4-4-4-4-4-4-4-4-|
B|-------------------------------------------------6-6-6-6-6-6-6-6-|
G|-------------------------------------------------4-4-4-4-4-4-4-4-|
D|-4-4-4-4-4-4-4-4-2-2-2-2-2-2-2-2-7-7-7-7-7-7-7-7-6-6-6-6-6-6-6-6-|
A|-4-4-4-4-4-4-4-4-2-2-2-2-2-2-2-2-7-7-7-7-7-7-7-7-4-4-4-4-4-4-4-4-|
D|-4-4-4-4-4-4-4-4-2-2-2-2-2-2-2-2-7-7-7-7-7-7-7-7-----------------|
  =================================GTR.2===========================

[Chorus]
e|--------------------------------------|
B|------------------------------------7-|
G|-7-76-----7-76-----7-76-------------7-|
D|-7-77-4-4-7-77-4-4-7-77-4-44-2-22-0-7-|
A|-5-55-4-4-5-55-4-4-5-55-4-44-2-22-0---|
D|-0-00-4-4-0-00-4-4-0-00-4-44-2-22-0---|    [x2]


e|----------4-4-4-4-4-4-4-4-|
B|--------7-6-6-6-6-6-6-6-6-|
G|--------7-4-4-4-4-4-4-4-4-|
D|-2-22-0-7-6-6-6-6-6-6-6-6-|
A|-2-22-0---4-4-4-4-4-4-4-4-|
D|-2-22-0-------------------|        [Chorus]

[Solo] -softer-
e|--------------------------------------------------------------------|
B|-----0-------0-------0-------0-------0-------0-------0-------0------|
G|---6-------4-------2-------2-------2-------2-------2-------2--------|
D|-7-----7-6-----6-4-----4-3-----3-0-----0-0-----0--------------------|
A|-------------------------------------------------4-----4-4-----4----|
D|--------------------------------------------------------------------|

e|-------------------------------------------------4-4-4-4-4-4-4-4-4-|
B|-----0-------0-------0-------0-------0-------0---6-6-6-6-6-6-6-6-6-|
G|---6-------4-------2-------2-------2-------2-----4-4-4-4-4-4-4-4-4-|
D|-7-----7-6-----6-4-----4-3-----3-0-----0-0-----0-6-6-6-6-6-6-6-6-6-|
A|-------------------------------------------------4-4-4-4-4-4-4-4-4-|
D|-------------------------------------------------------------------|
                                                     -get louder-     [Solo]
[Verse]
e|---------------------------------------------------------------------|
B|---------------------------------------------------------------------|
G|---------------------------------------------------------------------|
D|-7-7-7-7-6-6-4-4-7-7-7-7-6-6-4-4---2-2-2-2-2-4-2-0-------------------|
A|-4-4-4-4-4-4-4-4-0-0-0-0-0-0-0-0---0-0-0-0-0-0-0-0---2-2-2-2-2-4-2-0-|
D|-4-4-4-4-4-4-4-4-0-0-0-0-0-0-0-0---------------------0-0-0-0-0-0-0-0-|
  <<<<<<<<<<<<<<<<<<<<<<<<<<<<<<<>>>>>>>>>>>>>>>>>>>>>>>>>>>>

e|-----------------------------------------------------|
B|-----------------------------------------------------|
G|-----------------------------------------------------|
D|-2-2-2-2-2-4-2-0-------------------------------------|
A|-0-0-0-0-0-0-0-0---2-2-2-2-2-4-2-0---2-2-2-2-2-4-2-0-|
D|-------------------0-0-0-0-0-0-0-0---2-2-2-2-2-2-2-2-|
 <<<<<<<<<>>>>>>>>>>>>>>>>>>>>>>|

e|-4-4-4-4-4-4-4-4-|
B|-6-6-6-6-6-6-6-6-|
G|-4-4-4-4-4-4-4-4-|
D|-6-6-6-6-6-6-6-6-|
A|-4-4-4-4-4-4-4-4-|
D|-----------------|           [Chorus x 2]

[Pre-Chorus]
e|-------------------------------------------------4-4-4-4-4-4-4-4-|
B|-------------------------------------------------6-6-6-6-6-6-6-6-|
G|-6-6-6-6-6-6-6-6-4-4-4-4-4-4-4-4-2-2-2-2-2-2-2-2-4-4-4-4-4-4-4-4-|
D|-4-4-4-4-4-4-4-4-2-2-2-2-2-2-2-2-2-2-2-2-2-2-2-2-6-6-6-6-6-6-6-6-|
A|-0-0-0-0-0-0-0-0-0-0-0-0-0-0-0-0-0-0-0-0-0-0-0-0-4-4-4-4-4-4-4-4-|
D|-----------------------------------------------------------------|
  =================================GTR.1===========================

e|-------------------------------------------------4-4-4-4-4-4-4-4-|
B|-------------------------------------------------6-6-6-6-6-6-6-6-|
G|-------------------------------------------------4-4-4-4-4-4-4-4-|
D|-4-4-4-4-4-4-4-4-2-2-2-2-2-2-2-2-7-7-7-7-7-7-7-7-6-6-6-6-6-6-6-6-|
A|-4-4-4-4-4-4-4-4-2-2-2-2-2-2-2-2-7-7-7-7-7-7-7-7-4-4-4-4-4-4-4-4-|
D|-4-4-4-4-4-4-4-4-2-2-2-2-2-2-2-2-7-7-7-7-7-7-7-7-----------------|
  =================================GTR.2===========================

[Chorus]
e|--------------------------------------|
B|------------------------------------7-|
G|-7-76-----7-76-----7-76-------------7-|
D|-7-77-4-4-7-77-4-4-7-77-4-44-2-22-0-7-|
A|-5-55-4-4-5-55-4-4-5-55-4-44-2-22-0---|
D|-0-00-4-4-0-00-4-4-0-00-4-44-2-22-0---|    [x3]


e|----------4-4-4-4-4-4-4-4-|
B|--------7-6-6-6-6-6-6-6-6-|
G|--------7-4-4-4-4-4-4-4-4-|
D|-2-22-0-7-6-6-6-6-6-6-6-6-|
A|-2-22-0---4-4-4-4-4-4-4-4-|
D|-2-22-0-------------------|        [Chorus]


[Last chord] (when soming into this one, slow down from the final chords of the chorus, and let this ring)
e|-5-|
B|-7-|
G|-5-|
D|-7-|
A|-5-|
D|---|
Comments