Billy Talent - The Ex Chords & Tabs

 

The Ex Chords & Tabs

Billy Talent Chords & Tabs

Version: 7 Type: Tab 0 ratings
1 star 2 stars 3 stars 4 stars 5 stars
comments

The Ex Tab

----------------------------------------------------------------------------
			     The Ex - Billy Talent
----------------------------------------------------------------------------
Tabbed by:Matt
Email:chunkylover_63_8@hotmail

Tuning:Drop D (DADGBE)
(sounds best with some distortion)
P.S:all the Chorus are somewhat different.
			
			Layout:	
  /  slide up		intro
  \  slide down		verse x2
  h  hammer-on		pre-chorus
  p  pull-off		1st chorus
  ~  vibrato		Verse x2
  x  Mute note		pre-chorus
  .  Palm mute		2nd chorus
			solo
			3rd chorus
  Intro:		
e|------------------------------------------------------------444444--|
B|------------------------------------------------------------666666--|
G|------------------------------------------------------------444444--|
D|7---7---6---4---7---7---6---4---22222420--------------------666666--|
A|--------------------------------00000000-22222420-22222420--444444--|
D|--4---4---4---4---0---0---0---0----------00000000-22222420----------|

  Verse:
e|----------------------------------------------------------------444444--|
B|----------------------------------------------------------------666666--|
G|----------------------------------------------------------------444444--|
D|-77776644-77776644-22222420----------22222420-------------------666666--|
A|-44444444-00000000-00000000-22222420-00000000-22222420-22222420-444444--|
D|-44444444-00000000----------00000000----------00000000-22222420---------|
   ........ ........ ........ ........ ........ ....

  Verse:
e|----------------------------------------------------------------444444--|
B|----------------------------------------------------------------666666--|
G|----------------------------------------------------------------444444--|
D|-77776644-77776644-22222420----------22222420-------------------666666--|
A|-44444444-00000000-00000000-22222420-00000000-22222420-22222420-444444--|
D|-44444444-00000000----------00000000----------00000000-22222420---------|
   ........ ........ ........ ........ ........ ....

  Pre-chorus:
e|----------------------------------|
B|-------------------222222-2222222-|
G|----------11111111-222222-2222222-|
D|-44444444-22222222----------------|
A|-44444444-------------------------|
D|----------------------------------|
   ........ ........ ...... 
[ Tab from: http://www.guitartabs.cc/tabs/b/billy_talent/the_ex_tab_ver_7.html ]
  1st Chorus
 (               x2                            ) (      x1       )
e|-------------------------------------------7----------------7-|
B|-------------------------------------------7----------------7-|
G|-7--77-----7--77-----7--77-----------------7----------------7-|
D|-7--77-44--7--77-44--7--77--44--2--22--00--------2--22--00----|
A|-5--55-44--5--55-44--5--55--44--2--22--00--------2--22--00----|
D|-0--00-44--0--00-44--0--00--44--2--22--00--------2--22--00----|

  Verse:
e|----------------------------------------------------------------444444--|
B|----------------------------------------------------------------666666--|
G|----------------------------------------------------------------444444--|
D|-77776644-77776644-22222420----------22222420-------------------666666--|
A|-44444444-00000000-00000000-22222420-00000000-22222420-22222420-444444--|
D|-44444444-00000000----------00000000----------00000000-22222420---------|
   ........ ........ ........ ........ ........ ....

  Verse:
e|----------------------------------------------------------------444444--|
B|----------------------------------------------------------------666666--|
G|----------------------------------------------------------------444444--|
D|-77776644-77776644-22222420----------22222420-------------------666666--|
A|-44444444-00000000-00000000-22222420-00000000-22222420-22222420-444444--|
D|-44444444-00000000----------00000000----------00000000-22222420---------|
   ........ ........ ........ ........ ........ ....

  Pre-chorus:
e|----------------------------------|
B|-------------------222222-2222222-|
G|----------11111111-222222-2222222-|
D|-44444444-22222222----------------|
A|-44444444-------------------------|
D|----------------------------------|
   ........ ........ ...... 

 2nd Chorus
 (                  x4                          ) 
e|-------------------------------------------7--|
B|-------------------------------------------7--|
G|-7--77-----7--77-----7--77-----------------7--|
D|-7--77-44--7--77-44--7--77--44--2--22--00-----|
A|-5--55-44--5--55-44--5--55--44--2--22--00-----|
D|-0--00-44--0--00-44--0--00--44--2--22--00-----|

Solo:
  (                       X2                         )
e|--------------------------------------------------------|
B|-----0-----0-----0-----0-----0-----0-----0-----0-444----|
G|---6-----4-----2-----2-----2-----2-----2-----2---333----|
D|-7-----6-----4-----3-----0-----0-----------------444----|
A|-------------------------------------4-----4------------|
D|--------------------------------------------------------|

  Pre-chorus:
e|----------------------------------|
B|-------------------222222-2222222-|
G|----------11111111-222222-2222222-|
D|-44444444-22222222----------------|
A|-44444444-------------------------|
D|----------------------------------|
   ........ ........ ...... 

  3rd Chorus
 (                  x4                          ) 
e|-------------------------------------------7--|
B|-------------------------------------------7--|
G|-7--77-----7--77-----7--77-----------------7--|
D|-7--77-44--7--77-44--7--77--44--2--22--00-----|
A|-5--55-44--5--55-44--5--55--44--2--22--00-----|
D|-0--00-44--0--00-44--0--00--44--2--22--00-----|

the End
Comments