Billy Talent - The Ex Chords & Tabs

 

The Ex Chords & Tabs

Billy Talent Chords & Tabs

Version: 6 Type: Tab 0 ratings
1 star 2 stars 3 stars 4 stars 5 stars
comments

The Ex Tab

-------------------------------------------------------------------------------
			     The Ex - Billy Talent
-------------------------------------------------------------------------------
Tabbed by:A.Fu
Email:fumanchooey@hotmail.com
First Tab
Tuning: Dropped D
[ Tab from: http://www.guitartabs.cc/tabs/b/billy_talent/the_ex_tab_ver_6.html ]
E|--------------------------------------------------------|
B|----0--0--0--0--0--0--0--0------0--0--0--0--0--0--0-0-0-|
G|---6--4--2--2--2--2--2--2------6--4--2--2--2--2---2-2-2-|
D|--7--6--4--3--0--0------------7--6--4--3--0--0----x-x-x-|
A|-------------------4--4---------------------------4-4-4-|
D|--------------------------------------------------------|
Comments