Billy Talent - The Ex Chords & Tabs

 

The Ex Chords & Tabs

Billy Talent Chords & Tabs

Version: 5 Type: Tab 0 ratings
1 star 2 stars 3 stars 4 stars 5 stars
comments

The Ex Tab

Drop D tuning - Tabbed by Jonathan W. 

|---------------|---------------|-----------------------------|
|-----0-----0---|-----0-----0---|-----------------------------|
|---6-----4-----|---2-----1-----|-----4-----4-----4-----4-----|
|-7-----6-------|-4-----3-------|---4-----4-----3-----3-------|
|---------------|---------------|-5-----5-----4-----4---------|
|---------------|---------------|-----------------------------|
[ Tab from: http://www.guitartabs.cc/tabs/b/billy_talent/the_ex_tab_ver_5.html ]
|---------------|---------------|-------------------------------|
|-----0-----0---|-----0-----0---|-------------------------------|
|---6-----4-----|---2-----1-----|-----4-----4---4--4-4-4-4-4-4--|
|-7-----6-------|-4-----3-------|---4-----4-----3--3-3-3-3-3-3--|
|---------------|---------------|-5-----5-----4----4-4-4-4-4-4--|
|---------------|---------------|-------------------------------|

Questions or Comments email: Cyclops31388@yahoo.ca
Comments