Billy Talent - The Ex Chords & Tabs

 

The Ex Chords & Tabs

Billy Talent Chords & Tabs

Version: 4 Type: Tab 0 ratings
1 star 2 stars 3 stars 4 stars 5 stars
comments

The Ex Tab

Im not sure if this is perfect  but it sounds pretty good.

Tuning-Drop D=DAGDAe

1---------------------------------------
2-----0----0---0---0--0--0--0---0-------
3--2p1--1-1---1---1--1--1--1---1--------
4------------4---2--0--0----------------
5-------------------------4---4---------
6---------------------------------------
[ Tab from: http://www.guitartabs.cc/tabs/b/billy_talent/the_ex_tab_ver_4.html ]
1---------------------------------------
2---2p0----0---0---0--0--0--0-6-6-6-6---
3--2----1-1---1---1--1--1--1--4-4-4-4---
4------------4---2--0--0------6-6-6-6---
5-------------------------4---4-4-4-4---
6---------------------------------------


watch closely for the differences at the beginings.
for any questions(or Hate mail) e-mail me at horny_devil183@hotmail.com
Comments