Billy Talent - The Ex Chords & Tabs

 

The Ex Chords & Tabs

Billy Talent Chords & Tabs

Version: 2 Type: Tab 0 ratings
1 star 2 stars 3 stars 4 stars 5 stars
comments

The Ex Tab

if you have questions bout the tab email me at 
esprawnso@hotmail.com

e----------------------------------------------------------
b----------------------------------------------------------
g----------------------------------------------------------
d-7---7---6---4-7---7---6---4------------------------------x1
a----------------------------------------------------------
D---4---4---4-----0---0---0--------------------------------

e-------------------------------------4-4-4-4-4-4----------
b-------------------------------------6-6-6-6-6-6----------
g-------------------------------------4-4-4-4-4-4----------
d-2-2-2-2-4-0-------------------------6-6-6-6-6-6----------x1
a-0-0-0-0-0-0-2-2-2-2-4-0-2-2-2-2-4-0-4-4-4-4-4-4----------
D-------------0-0-0-0-0-0-2-2-2-2-2-2----------------------
[ Tab from: http://www.guitartabs.cc/tabs/b/billy_talent/the_ex_tab_ver_2.html ]
e----------------------------------------------------------
b----------------------------------------------------------
g----------------------------------------------------------
d-7---7---6---4-7---7---6---4------------------------------x1
a----------------------------------------------------------
D---4---4---4-----0---0---0--------------------------------

e-------------------------------------4-4-4-4-4-4----------
b-------------------------------------6-6-6-6-6-6----------
g-------------------------------------4-4-4-4-4-4----------
d-2-2-2-2-4-0-------------------------6-6-6-6-6-6----------x1
a-0-0-0-0-0-0-2-2-2-2-4-0-2-2-2-2-4-0-4-4-4-4-4-4----------
D-------------0-0-0-0-0-0-2-2-2-2-2-2----------------------

(palm muted w/distortion)
e----------------------------------------------------------
b----------------------------------------------------------
g----------------------------------------------------------
d-4-4-4-4-0-0-0-0-7-7-7-7-2-2-2-2--------------------------x3
a-4-4-4-4-0-0-0-0-7-7-7-7-2-2-2-2--------------------------
D-4-4-4-4-0-0-0-0-7-7-7-7-2-2-2-2--------------------------

e-------4-4-4-4-4------------------------------------------
b-------6-6-6-6-6------------------------------------------
g-------4-4-4-4-4------------------------------------------x1
d-7-2-2-6-6-6-6-6------------------------------------------
a-7-2-2-4-4-4-4-4------------------------------------------
D-7-2-2----------------------------------------------------

this is all i got so far hope you enjoy
Comments