Billy Talent - The Ex Chords & Tabs

 

The Ex Chords & Tabs

Billy Talent Chords & Tabs

Version: 1 Type: Tab 0 ratings
1 star 2 stars 3 stars 4 stars 5 stars
comments

The Ex Tab

Drop D tuning
|-----------------|-----------------|-----------------|
|-----------------|-----------------|-----------------|
|-----------------|-----------------|-----------------|
|-7---7---6---4---|-7---7---6---4---|-2-2-2-2-2-4-2-0-|
|-----------------|-----------------|-0-0-0-0-0-0-0-0-|
|---4---4---4---4-|---0---0---0---0-|-----------------|

|-----------------|-----------------|-4-4-4-4-4-4-4-4-|
|-----------------|-----------------|-6-6-6-6-6-6-6-6-|
|-----------------|-----------------|-4-4-4-4-4-4-4-4-|
|-----------------|-----------------|-6-6-6-6-6-6-6-6-|  
|-2-2-2-2-2-4-2-0-|-2-2-2-2-2-4-2-0-|-4-4-4-4-4-4-4-4-|
|-0-0-0-0-0-0-0-0-|-2-2-2-2-2-2-2-2-|-----------------|
                     x2
[ Tab from: http://www.guitartabs.cc/tabs/b/billy_talent/the_ex_tab.html ]
Palm Muted=^
|-----------------|-----------------|-----------------|-----------------|
|-----------------|-----------------|-----------------|-----------------|
|-----------------|-----------------|-----------------|-----------------|
|-----------------|-----------------|-2-2-2-2-2-4-2-0-|-----------------|
|-4-4-4-4-4-4-4-4-|-0-0-0-0-0-0-0-0-|-0-0-0-0-0-0-0-0-|-2-2-2-2-2-4-2-0-|
|-4-4-4-4-4-4-4-4-|-0-0-0-0-0-0-0-0-|-----------------|-0-0-0-0-0-0-0-0-|
  ^ ^ ^ ^ ^ ^ ^ ^   ^ ^ ^ ^ ^ ^ ^ ^   ^ ^ ^ ^ ^ ^ ^ ^   ^ ^ ^ ^ ^ ^ ^ ^   
|-----------------|-----------------|-----------------|-4-4-4-4-4-4-4-4-|
|-----------------|-----------------|-----------------|-6-6-6-6-6-6-6-6-|
|-----------------|-----------------|-----------------|-4-4-4-4-4-4-4-4-|
|-2-2-2-2-2-4-2-0-|-----------------|-----------------|-6-6-6-6-6-6-6-6-|
|-0-0-0-0-0-0-0-0-|-2-2-2-2-2-4-2-0-|-2-2-2-2-2-4-2-0-|-4-4-4-4-4-4-4-4-|
|-----------------|-0-0-0-0-0-0-0-0-|-2-2-2-2-2-2-2-2-|-----------------|
  ^ ^ ^ ^ ^ ^ ^ ^   ^ ^ ^ ^ ^
Comments