Billy Talent - The Ex Chords & Tabs

 

The Ex Chords & Tabs

Billy Talent Chords & Tabs

Version: 2 Type: Bass Tab 0 ratings
1 star 2 stars 3 stars 4 stars 5 stars
comments

The Ex Bass Tab

------BILLY TALENT---------/
 ---------The Ex-----------/
---------tabs by:----------/
 -------Tgunner989---------/


i hav everything except but the intro
~=hold it for 2 beats


"Well, I looked at her face and then I knew she changed...."
G/--------------------------------------------------------------/
D/--------------------------------------------------------------/
A/--------55555555---------55555555-77777777-44444444-----------/ X2 repeat
E/22222222---------55555555-------------------------------------/

G/----------------------------------------/
D/----------------------------------------/
A/--------------------------44444444------/
E/22222222-44444444-55555555--------------/

G/----------------------------------------/
D/----------------------------------------/
A/54-54-54-7-5----------------------------/
E/--2--2--2-------------------------------/
[ Tab from: http://www.guitartabs.cc/tabs/b/billy_talent/the_ex_btab_ver_2.html ]
G/-------------------------------------------------------------/
D/-------------------------------------------------------------/
A/--------55555555-44444444-55555555-44444444-77777777-44444444/ X2(repeat)
E/22222222-----------------------------------------------------/

"I don't know much and I don't know how..."
G/----------------------------------------/
D/----------------------------------------/
A/--------------------------44444444------/
E/22222222-44444444-55555555--------------/

G/-------------------------------------------------/on the forth time end it like this/
D/---------------/---------------242---------------/
A/54-54-54-7-5-X4/---------4~-5~----5-4~-----------/X2 repeat
E/--2--2--2------/2~-4~-5~-------------------------/

G/----------------------------------------/
D/----------------------------------------/
A/--------------------------44444444------/
E/22222222-44444444-55555555--------------/

End the song with
G/----------------------------------------/
D/----------------------------------------/
A/54-54-54-7-5----------------------------/
E/--2--2--2-------------------------------/X2 repeat

and your done hope my thing made any sense
this was my first tab
Tgunner989
Comments