Billy Talent - The Ex Chords & Tabs

 

The Ex Chords & Tabs

Billy Talent Chords & Tabs

Version: 1 Type: Bass Tab 0 ratings
1 star 2 stars 3 stars 4 stars 5 stars
comments

The Ex Bass Tab

   
This song is the best, i tabbed it best i could, let me know if i meesed up somewhere..
billytalentonfire182@hotmail.com 
Drop D 

Don't play the first time it's only guitar.

Intro
G--------------------------------------------------
D----------------------------------2-2-2-2-2-4-2-0-
A--------------------------------------------------
D--4-4-4-4-4-4-4-4-0-0-0-0-0-0-0-0-----------------

G--------------------------------------------------
D--------------------------------------------------
A--2-2-2-2-2-4-2-0-----------------4-4-4-4-4-4-4-4-
D------------------2-2-2-2-2-4-2-0-----------------


Verse
G--------------------------------------------------
D----------------------------------2-2-2-2-2-4-2-0-
A--------------------------------------------------
D--4-4-4-4-4-4-4-4-0-0-0-0-0-0-0-0-----------------

G--------------------------------------------------
D------------------2-2-2-2-2-4-2-0-----------------
A--2-2-2-2-2-4-2-0-----------------2-2-2-2-2-4-2-0-
D--------------------------------------------------
[ Tab from: http://www.guitartabs.cc/tabs/b/billy_talent/the_ex_btab.html ]
G--------------------------------------------------
D--------------------------------------------------
A------------------4-4-4-4-4-4-4-4-----------------
D--2-2-2-2-2-4-2-0---------------------------------


Pre-Chours
G------------------------------------------------------------------
D------------------------------------------------------------------
A--------------------------------------------------4-4-4-4-4-4-4-4-
D--4-4-4-4-4-4-4-4-6-6-6-6-6-6-6-6-7-7-7-7-7-7-7-7-----------------

Chours
G--------------------------------------------------
D--------------------------------------------------
A--5-55------5-55------5-55------------------------
D-------4-44------4-44------4-44-2-22-0-0----------


Post-Chors
G--------------------------------------------------
D--------------------------------------------------
A-----------4-4-4-4-4-4-4-4------------------------
D--2-22-0-0----------------------------------------


Interlude
G--------------------------------------------------
D----------0-242*----------------------------------
A------0-4--------4-4-4-4-4-4-4-4------------------
D--4-6---------------------------------------------
*242 is played super fast!

Order
Intro(just guitar)x1
Intro(With Bass)x1
Verse x2
Pre-Chours x1
Chours x2
Post Chours x1
Verse x2
Pre-Chours x1
Chours x4
Interlude x2
Pre-Chours x1
Chours x2
If anythings wrong lemme know at: Billytalentonfire182@hotmail.com
thanks guys
Comments