Billy Talent - Surrender Chords & Tabs

 

Surrender Chords & Tabs

Billy Talent Chords & Tabs

Version: 3 Type: Tab

Surrender Tab

   
-----------------------------------------------------------------------
			     SURRENDER - Billy Talent
-----------------------------------------------------------------------

Tabbed by: devintaylor
Email: devin.taylor@hotmail.com

Note: This song, from Billy Talentís upcoming Spring 2006 release, was put up on several 
the bandís official and affiliated websites, including billytalent.com and the bandís 
site, for one day only on Valentineís day.

Thanks to my friend Brahm for checking over the tab for correctness and whatnot.

Please email with any corrections.

Tuning: Drop D (DADGBe)


Intro

e--------7--------7-------------8-------8------------|
B----------------------------------------------------|
G-----5--------5-----5--------0-------0-------0------|
D--7--------7-----------7--5-------5-------5---------|
A----------------------------------------------------|
D----------------------------------------------------|

e--------12-------12--------------10-----------------|
B----------------------------------------------9-----|
G-----10-------10----10---------9-----------7--------|
D--12-------12----------12--10-------10--9--------9--|
A----------------------------------------------------|
D----------------------------------------------------|

e--------7--------7-------------8-------8------------|
B----------------------------------------------------|
G-----5--------5-----5--------0-------0-------0------|
D--7--------7-----------7--5-------5-------5---------|
A----------------------------------------------------|
D----------------------------------------------------|

e--------12-------12--------------10-----------------|
B----------------------------------------------9-----|
G-----10-------10----10---------9-----------7--------|
D--12-------12----------12--10-------10--9--------9--|
A----------------------------------------------------|
D----------------------------------------------------|


Verse I

e------------------------------------|
B------------------------------------|
G--5--7--10---9--9--5--7--10---9--9--|
D--7--5--12--10--9--7--5--12--10--9--|
A------------------------------------|
D------------------------------------|

e------------------------------------|
B------------------------------------|
G--5--7--10---9--9--5--7--10---9--9--|
D--7--5--12--10--9--7--5--12--10--9--|
A------------------------------------|
D------------------------------------|


Chorus

e----------------------------------------------------|
B----------------------------------------------------|
G--------------0-----------------------0-------------|
D--------7--------7--------------9--------9----------|
A-----3-----3--------3--------5-----5--------5-------|
D--3--------------------3--5--------------------5----|

e-------------------------------------------0-----0--|
B---------------0------------------------5-----------|
G------------------0---------------2-----------2-----|
D--------10-----------10--------------4--------------|
A-----7------7------------0-----0--------------------|
D--7-------------------------0-----------------------|

e----------------------------------------------------|
B----------------------------------------------------|
G--------------0-----------------------0-------------|
D--------7--------7--------------9--------9----------|
A-----3-----3--------3--------5-----5--------5-------|
D--3--------------------3--5--------------------5----|

e-------------------------------------------0-----0--|
B---------------0------------------------5-----------|
G------------------0---------------2-----------2-----|
D--------10-----------10--------------4--------------|
A-----7------7------------0-----0--------------------|
D--7-------------------------0-----------------------|

e--------------------------------------------------0--~~
B--------------------------------------------------5--~~
G--------------0-----------------------0-----------5--~~
D--------7--------7--------------9--------9--------0--~~
A-----3-----3--------3--------5-----5--------5-----5--~~
D--3--------------------3--5--------------------5-----~~


Post-Chorus

e--------7--------7-------------8-------8------------|
B----------------------------------------------------|
G-----5--------5-----5--------0-------0-------0------|
D--7--------7-----------7--5-------5-------5---------|
A----------------------------------------------------|
D----------------------------------------------------|
[ Tab from: http://www.guitartabs.cc/tabs/b/billy_talent/surrender_tab_ver_3.html ]
e--------12-------12--------------10-----------------|
B----------------------------------------------9-----|
G-----10-------10----10---------9-----------7--------|
D--12-------12----------12--10-------10--9--------9--|
A----------------------------------------------------|
D----------------------------------------------------|


Verse II

e------------------------------------|
B------------------------------------|
G--5--7--10---9--9--5--7--10---9--9--|
D--7--5--12--10--9--7--5--12--10--9--|
A------------------------------------|
D------------------------------------|


Chorus

e----------------------------------------------------|
B----------------------------------------------------|
G--------------0-----------------------0-------------|
D--------7--------7--------------9--------9----------|
A-----3-----3--------3--------5-----5--------5-------|
D--3--------------------3--5--------------------5----|

e-------------------------------------------0-----0--|
B---------------0------------------------5-----------|
G------------------0---------------2-----------2-----|
D--------10-----------10--------------4--------------|
A-----7------7------------0-----0--------------------|
D--7-------------------------0-----------------------|

e----------------------------------------------------|
B----------------------------------------------------|
G--------------0-----------------------0-------------|
D--------7--------7--------------9--------9----------|
A-----3-----3--------3--------5-----5--------5-------|
D--3--------------------3--5--------------------5----|

e-------------------------------------------0-----0--|
B---------------0------------------------5-----------|
G------------------0---------------2-----------2-----|
D--------10-----------10--------------4--------------|
A-----7------7------------0-----0--------------------|
D--7-------------------------0-----------------------|

e--------------------------------------------------0--~~
B--------------------------------------------------5--~~
G--------------0-----------------------0-----------5--~~
D--------7--------7--------------9--------9--------0--~~
A-----3-----3--------3--------5-----5--------5-----5--~~
D--3--------------------3--5--------------------5-----~~


Bridge

(strumming pattern for chords not indicated)

e--------------------0--0-----------------------|
B--------------------6--5-----------------------|
G--------------------0--0-----------------------|
D--7--8--3--5--7--8--7--5--2--------------------|
A--7--8--3--5--7--8--5--3--2--------------------|
D--7--8--3--5--7--8--------2--------------------|

e--------------------0--0-----0--0-----0--0--0--|
B--------------------6--5-----6--5-----6--5--3--|
G--------------------0--0-----0--0-----0--0--0--|
D--7--8--3--5--7--8--7--5--2--7--5--2--7--5--0--|
A--7--8--3--5--7--8--5--3--2--5--3--2--5--3--2--|
E--7--8--3--5--7--8--------2--------2-----------|


Outro

e----------------------------------------------------|
B----------------------------------------------------|
G--------------0-----------------------0-------------|
D--------7--------7--------------9--------9----------|
A-----3-----3--------3--------5-----5--------5-------|
D--3--------------------3--5--------------------5----|

e-------------------------------------------0-----0--|
B---------------0------------------------5-----------|
G------------------0---------------2-----------2-----|
D--------10-----------10--------------4--------------|
A-----7------7------------0-----0--------------------|
D--7-------------------------0-----------------------|

(x8)


Then:

e----------------------------------------------------|
B----------------------------------------------------|
G--------------0-----------------------0-------------|
D--------7--------7--------------9--------9----------|
A-----3-----3--------3--------5-----5--------5-------|
D--3--------------------3--5--------------------5----|


e--------7--------7-------------8-------8------------|
B----------------------------------------------------|
G-----5--------5-----5--------0-------0-------0------|
D--7--------7-----------7--5-------5-------5---------|
A----------------------------------------------------|
D----------------------------------------------------|

e--------12-------12--------------10-----------------7--~~
B----------------------------------------------9-----0--~~
G-----10-------10----10---------9-----------7--------5--~~
D--12-------12----------12--10-------10--9--------9--7--~~
A-------------------------------------------------------~~
D-------------------------------------------------------~~


| /  slide up
| \  slide down
| h  hammer-on
| p  pull-off
| ~  vibrato
| +  harmonic
| x  Mute note
=======================================================================