Billy Talent - Surrender Chords & Tabs

 

Surrender Chords & Tabs

Billy Talent Chords & Tabs

Version: 2 Type: Tab

Surrender Tab

   
-------------------------------------------------------------------------------
			     SURRENDER - Billy Talent
-------------------------------------------------------------------------------
Tabbed by: Barry Miles
Email: shoebox_of_lies@hotmail.com

Tuning: Drop-D (DADGBe)

Update --- Someone said it wasn't organized, so this should do it.

Update --- Fixed the chorus picking, coutesy of Daniel Mcloed. He sent me his perfect
version of it through e-mail. Thanks Dan

Their new song - it sounds kinda emo at first, but once it picks up, it's awesome.
Thanks to temp144, his bass tab helped me tab this out a bit. Any corrections, send
em my way.

Intro:
e|-----7-----7---------8-----8-----------12-------12------------10-----------|
B|-----0-----0-----------------------------------------------------------9---|
G|---5-----5---5-----0-----0---0------10-------10----10-------9----9---7---7-| x2
D|-7-----7-------7-5-----5-------5-12-------12----------12-10--------9-------|
A|---------------------------------------------------------------------------|
D|---------------------------------------------------------------------------|

Verse:
e|---------------------|
B|---------------------|
G|-5---4---10---9---7--|  x2
D|-7---5---12---10--9--|
A|---------------------|
D|---------------------|

e|-----------------------------------------------------------------------------|
B|-----------------------------------------------------------------------------|
G|-5---------------4---------------10--------------------9-------------7-------| x2
D|-7--7-7-7-7-7-7--5--5-5-5-5-5-5--12--12-12-12-12-12-12-10--10-10-10--9--9-9-9|
A|-----------------------------------------------------------------------------|
D|-----------------------------------------------------------------------------|

Chorus:
e|-----------------|-----------------|-----------------|---------0-------|
B|-----------------|---------0-----0-|---------0-------|-----5-----5---5-|
G|-----2-----2-----|-----4-----4-----|-----5-------5---|---2---2---------| x2
D|---5-----5---5---|---5---5-----5---|---2---2---2-----|-0-----------0---|
A|-----------------|-----------------|-0-------------0-|-----------------|
D|-3-----3-------3-|-5---------------|-----------------|-----------------|

e|-----------------|-----------------|-5------|
B|-----------------|---------0-----0-|-5------|
G|-----2-----2-----|-----4-----4-----|-7------|
D|---5-----5---5---|---5---5-----5---|-7------|
A|-----------------|-----------------|-5------|
D|-3-----3-------3-|-5---------------|-0------|

Post-Chorus:
e|-----7-----7---------8-----8-----------12-------12------------10-----------|
B|-----0-----0-----------------------------------------------------------9---|
G|---5-----5---5-----0-----0---0------10-------10----10-------9----9---7---7-|
D|-7-----7-------7-5-----5-------5-12-------12----------12-10--------9-------|
A|---------------------------------------------------------------------------|
D|---------------------------------------------------------------------------|

Verse 2:
e|-----------------------------------------------------------------------------|
B|-----------------------------------------------------------------------------|
G|-5---------------4---------------10--------------------9-------------7-------|
D|-7--7-7-7-7-7-7--5--5-5-5-5-5-5--12--12-12-12-12-12-12-10--10-10-10--9--9-9-9| x2
A|-----------------------------------------------------------------------------|
D|-----------------------------------------------------------------------------|

Chorus 2:
e|-----------------|-----------------|-----------------|---------0-------|
B|-----------------|---------0-----0-|---------0-------|-----5-----5---5-|
G|-----2-----2-----|-----4-----4-----|-----5-------5---|---2---2---------| x2
D|---5-----5---5---|---5---5-----5---|---2---2---2-----|-0-----------0---|
A|-----------------|-----------------|-0-------------0-|-----------------|
D|-3-----3-------3-|-5---------------|-----------------|-----------------|
[ Tab from: http://www.guitartabs.cc/tabs/b/billy_talent/surrender_tab_ver_2.html ]
                                           P.M.---------|
e|-----------------|-----------------|-5----------------|
B|-----------------|---------0-----0-|-5----------------|
G|-----2-----2-----|-----4-----4-----|-7----------------|
D|---5-----5---5---|---5---5-----5---|-7----------------|
A|-----------------|-----------------|-5----0-0-0-0-0-0-|
D|-3-----3-------3-|-5---------------|-0----0-0-0-0-0-0-|

Bridge:
e|-----------------|-----------------|-----------------|-----------------|
B|-----------------|-----------------|-----------------|-----------------|
G|-2-2-2-2-2-2-2-3-|-3-3-3-3-3-3-3---|-----------------|---------------2-|
D|-2-2-2-2-2-2-2-3-|-3-3-3-3-3-3-3-3-|-3-3-3-3-3-3-3-5-|-5-5-5-5-5-5-5-2-|
A|-0-0-0-0-0-0-0-1-|-1-1-1-1-1-1-1-3-|-3-3-3-3-3-3-3-5-|-5-5-5-5-5-5-5-0-|
D|-----------------|---------------3-|-3-3-3-3-3-3-3-5-|-5-5-5-5-5-5-5---|

e|-----------------|-----------------|-----------------|-----------------|
B|-----------------|-----------------|-----------------|-----------------|
G|-2-2-2-2-2-2-2-3-|-3-3-3-3-3-3-3-3-|---------------5-|---5-5-5---------|
D|-2-2-2-2-2-2-2-3-|-3-3-3-3-3-3-3-3-|-7---7-7---7-7-5-|---5-5-5-2-2-2-2-|
A|-0-0-0-0-0-0-0-1-|-1-1-1-1-1-1-1-1-|-5---5-5---5-5-3-|---3-3-3-2-2-2-2-|
D|-----------------|-----------------|-0---0-0---0-0---|---------2-2-2-2-|

e|-----------------|-----------------|-----------------|-----------------|
B|-----------------|-----------------|-----------------|-----------------|
G|-2-2-2-2-2-2-2-3-|-3-3-3-3-3-3-3---|-----------------|---------------2-|
D|-2-2-2-2-2-2-2-3-|-3-3-3-3-3-3-3-3-|-3-3-3-3-3-3-3-5-|-5-5-5-5-5-5-5-2-|
A|-0-0-0-0-0-0-0-1-|-1-1-1-1-1-1-1-3-|-3-3-3-3-3-3-3-5-|-5-5-5-5-5-5-5-0-|
D|-----------------|---------------3-|-3-3-3-3-3-3-3-5-|-5-5-5-5-5-5-5---|

e|-----------------|-----------------|-----------------|-----------------|
B|-----------------|-----------------|-----------------|-----------------|
G|-2-2-2-2-2-2-2-3-|-3-3-3-3-3-3-3-3-|---------------5-|---5-5-5---------|
D|-2-2-2-2-2-2-2-3-|-3-3-3-3-3-3-3-3-|-7---7-7---7-7-5-|---5-5-5-2-2-2-2-|
A|-0-0-0-0-0-0-0-1-|-1-1-1-1-1-1-1-1-|-5---5-5---5-5-3-|---3-3-3-2-2-2-2-|
D|-----------------|-----------------|-0---0-0---0-0---|---------2-2-2-2-|

e|-----------------|-----------------|---------------|-----------|
B|-----------------|-----------------|---------------|-----------|
G|---------------5-|---5-5-5---------|---------------|-5---------|
D|-7---7-7---7-7-5-|---5-5-5-2-2-2-2-|-7---7-7---7-7-|-5----5----|
A|-5---5-5---5-5-3-|---3-3-3-2-2-2-2-|-5---5-5---5-5-|-3----5----|
D|-0---0-0---0-0---|---------2-2-2-2-|-0---0-0---0-0-|------5----|

Post Bridge/Chorus 3:
e|-----------------|-----------------|-----------------|---------0-------|
B|-----------------|---------0-----0-|---------0-------|-----5-----5---5-|
G|-----2-----2-----|-----4-----4-----|-----5-------5---|---2---2---------| x7
D|---5-----5---5---|---5---5-----5---|---2---2---2-----|-0-----------0---|
A|-----------------|-----------------|-0-------------0-|-----------------|
D|-3-----3-------3-|-5---------------|-----------------|-----------------|

e|----------------|-----------------|
B|----------------|---------0-----0-|
G|-----2-----2----|-----4-----4-----|
D|---5-----5---5--|---5---5-----5---|
A|----------------|-----------------|
D|-3-----3-------3|-5---------------|

Outro:

e|-----7-----7---------8-----8-----------12-------12------------10-----------|
B|-----0-----0-----------------------------------------------------------9---|
G|---5-----5---5-----0-----0---0------10-------10----10-------9----9---7---7-|
D|-7-----7-------7-5-----5-------5-12-------12----------12-10--------9-------|
A|---------------------------------------------------------------------------|
D|---------------------------------------------------------------------------|

e|-7-|
B|-0-|
G|-5-|
D|-7-|
A|---|
D|---|


| /  slide up
| \  slide down
| h  hammer-on
| p  pull-off
| ~  vibrato
| +  harmonic
| x  Mute note
===============================================================================