Billy Talent - Surrender Chords & Tabs

 

Surrender Chords & Tabs

Billy Talent Chords & Tabs

Version: 1 Type: Bass Tab

Surrender Bass Tab

   
Tuning: Drop-D

This is the 3rd new Billy Talent song that they've released for Valentines.
Personally, I think love songs are overrated but this is a pretty good song.
I even think they use piano and bagpipes in this one, so it shows there evolving
sound. Anyway, it's pretty simple to play and I think the tabs close to perfect,
so just try and rate it anyway. Long Live Taborama & Enjoy! 

Intro:1x
G|-----------------------------------------|
D|-------555555---------3-2-0--------------|
A|-000000-------0-5-0-5-------2-3333-------|
D|-----------------------------------2222--|

Verse:4x                                 Play after 2x
G|---------------------------------------|---------------------------|
D|---------------------------------------|---------3-2-0-------------|
A|-0-(ring)-------5(ring)-3(ring)--------|-0-5-0-5-------2-3333------|
D|---------5(ring)---------------2(ring--|----------------------2222-|
[ Tab from: http://www.guitartabs.cc/tabs/b/billy_talent/surrender_btab.html ]
Chorus x2 
G|--------------------------------------------|--------------------|
D|--------------------------------------------|--------------------|
A|--------------- 0000000(55555555)-----------|------------5(ring)-|
D|--33333335555555--------00000000------------|-3333355555---------|

Post Chorus: Play Intro x1
Verse:2x
Chorus:2x
Bridge:2x Part 1
G|-------------------------------------------------------------|
D|-------------------------------------------------------------|
A|-0000000111111111----------------0000000111111111-5-555-33---|
D|-----------------333333335555555---------------------------2-|

Part:1x
G|------------------------------------------------------|
D|------------------------------------------------------|
A|-5-555-33---5-555-33---5-555-3-2----------------------|
D|----------2----------2-----------3(ring)--------------|

Post Bridge:3x
G|---------------------------------------|
D|---------------------------------------|
A|------------------0(ring)--------------|
D|--3(ring)-5(ring)--------0(ring)-------|
Chorus x7 
Outro:1x
G|---------------------------------------|
D|---------------------------------------|
A|----5(ring)-3(ring)-2(ring)-0(ring)----|
D|---------------------------------------|