Billy Talent - River Below Chords & Tabs

 

River Below Chords & Tabs

Billy Talent Chords & Tabs

Version: 7 Type: Tab 0 ratings
1 star 2 stars 3 stars 4 stars 5 stars
comments

River Below Tab

Intro:
|---------------------------------|
|---------------------------------|
|-0-0-3-0-7-0-3-0-8-7-5-----------|
|-----------------------8-7-5-----| x2
|-----------------------------8-6-|
|---------------------------------|

Verse:
|------------------------------------------------------------------------|
|------------------------------------------------------------------------|
|------------------------------------------------------------------------|
|-5-5-5--0-0-0--10---5-5-5--0-0-0--10---5-5-5--3-3-3-3--8-8-8-8--0-0-0-0-| x2
|-5-5-5--0-0-0--10---5-5-5--0-0-0--10---5-5-5--3-3-3-3--8-8-8-8--0-0-0-0-|
|-5-5-5--0-0-0--10---5-5-5--0-0-0--10---5-5-5--3-3-3-3--8-8-8-8--0-0-0-0-|

Pre-chorus:
|---------------------------------5----|
|------4--------8--------3--------7----|
|--------------------------------------|
|----5---5----8---8----3---3----7---7--|
|--3--------6--------1--------5--------|
|--------------------------------------|

|--------------------------------|
|------4--------8--------3-------|
|--------------------------------|
|----5---5----8---8----3---3--5--|
|--3--------6--------1--------5--|
|-----------------------------5--|

Chorus:
|--------------------------------------------|
|--------------------------------------------|
|--------------------------------------------|
|-8----3----5----12----13----5----0----1-----| x2
|-5-x7-0-x7-1-x7-8--x7-10-x4-5-x4-0-x4-1-x4--|
|-5----0----1----8-----10----5----0----1-----|

|---------------------------------|
|---------------------------------|
|-0-0-3-0-7-0-3-0-8-7-5-----------|
|-----------------------8-7-5-----| x2
|-----------------------------8-6-|
|---------------------------------|
[ Tab from: http://www.guitartabs.cc/tabs/b/billy_talent/river_below_tab_ver_7.html ]
Verse:
|------------------------------------------------------------------------|
|------------------------------------------------------------------------|
|------------------------------------------------------------------------|
|-5-5-5--0-0-0--10---5-5-5--0-0-0--10---5-5-5--3-3-3-3--8-8-8-8--0-0-0-0-| x2
|-5-5-5--0-0-0--10---5-5-5--0-0-0--10---5-5-5--3-3-3-3--8-8-8-8--0-0-0-0-|
|-5-5-5--0-0-0--10---5-5-5--0-0-0--10---5-5-5--3-3-3-3--8-8-8-8--0-0-0-0-|

Pre-chorus:
|---------------------------------5----|
|------4--------8--------3--------7----|
|--------------------------------------|
|----5---5----8---8----3---3----7---7--|
|--3--------6--------1--------5--------|
|--------------------------------------|

|--------------------------------|
|------4--------8--------3-------|
|--------------------------------|
|----5---5----8---8----3---3--5--|
|--3--------6--------1--------5--|
|-----------------------------5--|

Chorus:
|--------------------------------------------|
|--------------------------------------------|
|--------------------------------------------|
|-8----3----5----12----13----5----0----1-----| x2
|-5-x7-0-x7-1-x7-8--x7-10-x4-5-x4-0-x4-1-x4--|
|-5----0----1----8-----10----5----0----1-----|

|------------------------------|
|------------------------------|
|------------------------------|
|-13----5----0----1------------|
|-10-x4-5-x4-0-x4-1-x4---------|
|-10----5----0----1------------|

Bridge:
|------------------------------|
|------------------------------|
|-0-0-3-0-7-0-3-0--------------|
|-----------------0------------| x4
|-----------------0------------|
|-----------------0------------|

Chorus:
|--------------------------------------------|
|--------------------------------------------|
|--------------------------------------------|
|-8----3----5----12----13----5----0----1-----| x2
|-5-x7-0-x7-1-x7-8--x7-10-x4-5-x4-0-x4-1-x4--|
|-5----0----1----8-----10----5----0----1-----|

|------------------------------|
|------------------------------|
|------------------------------|
|-13----5----0----1------------| x3
|-10-x4-5-x4-0-x4-1-x4---------|
|-10----5----0----1------------|

|---------------------------------|
|---------------------------------|
|-0-0-3-0-7-0-3-0-8-7-5-----------|
|-----------------------8-7-5-----|
|-----------------------------8-6-|
|---------------------------------|

I hope you'll enjoy play this song as much as I had writing it! Have fun!
Comments