Billy Talent - River Below Chords & Tabs

 

River Below Chords & Tabs

Billy Talent Chords & Tabs

Version: 2 Type: Tab 0 ratings
1 star 2 stars 3 stars 4 stars 5 stars
comments

River Below Tab

   
---------------------------------------------------------------------------
			     River Below - Billy Talent
---------------------------------------------------------------------------
I saw them live this is how i think he plays it exellent band to see live 
I didnt work out the struming but its not hard u can figure it out
Please rate and correct and ill fix anything thats wrong
Tuning: Drop D

Intro
e|-------------------------|
B|-------------------------|
G|----8-5-7-8-7------------|
D|-5------------8-7--------| x2
A|------------------8-7----|
E|-------------------------|

Verse
e|----------|
B|----------|
G|----77-55-|
D|-55-77-55-|
A|-55-55-33-|
E|-33-------|
[ Tab from: http://www.guitartabs.cc/tabs/b/billy_talent/river_below_tab_ver_2.html ]
This part sounds right form the other tab
Pre chorus
e|-----------------------------2----------------------2~-------|
B|-------------4-------------1--------------4---------1~-------|
G|------5----3--------3----2--------5-----3-------3---2~-------|
D|----5----1--------3-------------5-----1-------3--------------|
A|--3-------------1-------------3-------------1----------------|
E|-------------------------------------------------------------|
                                                      let ring
Chorus
e|-------------|--------------|
B|-------------|--------------|
G|------55-33--|-55------44---|
D|-55-7-55-33--|-55-55-7-44---| x4
A|-55-7-33-11--|-33-55-7-22---|
E|-35-6--------|----33-6------|


| /  slide up
| \  slide down
| h  hammer-on
| p  pull-off
| ~  vibrato
| +  harmonic
| x  Mute note
============================================================================
Comments