Billy Talent - River Below Chords & Tabs

 

River Below Chords & Tabs

Billy Talent Chords & Tabs

Version: 1 Type: Tab 0 ratings
1 star 2 stars 3 stars 4 stars 5 stars
comments

River Below Tab

   
----------------------------------------------------------------------------
	                 River Below - Billy Talent
----------------------------------------------------------------------------

My first tab, email me with suggestions or whatever
Listen to this great song to get the timing right
Not sure if this is all right

Standard Tuning

Intro - distorted - play twice
e|---------------------------------------------------------------------|
B|----------3--------4-3-----------------------------------------------|
G|------3-------3--------5-3/2-----------------------------------------|
D|--5-5---5---5---5------------5-3-------------------------------------|
A|---------------------------------6-----------------------------------|
E|---------------------------------------------------------------------|
    
~~~~~~~~~~~~~~~~~~~~~~~~~~~~~~~~~~~~~~~~~~~~~~~~~~~~~~~~~~~~~~~~~~~~~~~~

Verse riff - distorted - play twice
e|------------------------------------------------|
B|------------------------------------------------|
G|--3--2--3---3-3-2-3/5----3--2--3---3-3-2-3/5----|   
D|--3--3--3---3-3-3-3/5----3--3--3---3-3-3-3/5----|
A|------------------------------------------------|
E|------------------------------------------------|
  

e|----------------------2-------------------|
B|----------------------1-------------------|
G|--3--2--3---3-3-2-3-3-2-------------------|
D|--3--3--3---3-3-3-3-3---------------------|
A|--------------------1---------------------|
E|------------------------------------------|


~~~~~~~~~~~~~~~~~~~~~~~~~~~~~~~~~~~~~~~~~~~~~~~~~~~~~~~~~~~~~~~~~~~~~~~~
[ Tab from: http://www.guitartabs.cc/tabs/b/billy_talent/river_below_tab.html ]
Pre-chorus - clean tone
e|-----------------------------2---------------------2-----------------|
B|---------------4-----------1--------------4--------1-----------------|
G|------5------3-------3---2---------5----3------3---2-----------------|
D|----5------1-------3-------------5----1------3-----------------------|
A|--3--------------1-------------3-----------1-------------------------|
E|---------------------------------------------------------------------|
                                                     ^^let ring

~~~~~~~~~~~~~~~~~~~~~~~~~~~~~~~~~~~~~~~~~~~~~~~~~~~~~~~~~~~~~~~~~~~~~~~~

Chorus - Distorted
e|------------------2-2-2-2-2-2-2-2------------------------------------|
B|------------------1-1-1-1-1-1-1-1------------------------------------|
G|------------------2-2-2-2-2-2-2-2-8-8-8-8-8-8-8-8-3-3-3-3-3-3-3-3-3--|
D|--5-5-5-5-5-5-5-5-----------------8-8-8-8-8-8-8-8-3-3-3-3-3-3-3-3-3--|
A|--5-5-5-5-5-5-5-5-----------------6-6-6-6-6-6-6-6-1-1-1-1-1-1-1-1-1--|
E|--3-3-3-3-3-3-3-3----------------------------------------------------|


e|----------------------------------2-2-2-2-2-2-2-2--------------------|
B|----------------------------------1-1-1-1-1-1-1-1--------------------|
G|--5-5-5-5-5-5-5-5-----------------2-2-2-2-2-2-2-2-3-3-3-3-3-3-3-3-3--|
D|--5-5-5-5-5-5-5-5-5-5-5-5-5-5-5-5-----------------3-3-3-3-3-3-3-3-3--|
A|--3-3-3-3-3-3-3-3-5-5-5-5-5-5-5-5-----------------1-1-1-1-1-1-1-1-1--|
E|------------------3-3-3-3-3-3-3-3------------------------------------|


Thatís all the main parts of the song.  Repeat them again for the second verse and chorus etc.

| /  slide up
| \  slide down
| h  hammer-on
| p  pull-off
| ~  vibrato
| +  harmonic
| x  Mute note
============================================================================
Comments