Billy Talent - River Below Chords & Tabs

 

River Below Chords & Tabs

Billy Talent Chords & Tabs

Version: 2 Type: Bass Tab 0 ratings
1 star 2 stars 3 stars 4 stars 5 stars
comments

River Below Bass Tab

Intro
G|-------------------------------|
D|-------------------------------|
A|----5-5--5-5-------------------|
D|---------------0-0-0-0-0-0-----| 

Verse
G|-------------------------| |------------------------------------|
D|-------------------------| |------------------------------------|
A|----------555--3---------| | -----------------------------------|
D|--5-5-5------------------| |----88888888--1212121212121212------|
[ Tab from: http://www.guitartabs.cc/tabs/b/billy_talent/river_below_btab_ver_2.html ]
Bridge: "I'm sick and I'm twisted..."
G|------5----------8----------3----------7------|
D|----5----------8----------3----------7--------|
A|--3-----3---6------6---1-----1---5-----5------|x 2
D|----------------------------------------------|

Chorus: "Into the river below..."
G|-------------------------------------------|
D|-------------------------------------------|
A|-------------------------------------------|
D|------5555555--0000000--1111111--8888888---| then->
      
 "They'll think I'm insane but you'll all...."
G|--------------------------------------|
D|--------------------------------------|
A|--3333--------------------------------| x 2 I think...
D|----------5555--0000--1111------------|

And when he screams "into the river below" 4 times:
G|-----------------------|
D|-----------------------|
A|---5-5-5-5--5----------|
D|----------------0~ ----|
Comments