Billy Talent - River Below Chords & Tabs

 

River Below Chords & Tabs

Billy Talent Chords & Tabs

Version: 1 Type: Bass Tab 0 ratings
1 star 2 stars 3 stars 4 stars 5 stars
comments

River Below Bass Tab

-------------------------------------------------------------------------------
			     River Below - Billy Talent
-------------------------------------------------------------------------------

Tabbed By : Rick
e-mail: dm_rick@hotmail.com

Tuning: Dropped D (DADG)

Less chat more tab so lets get right to it


Intro:
G|------------------------------------|
D|------------------------------------|
A|------------------------------------|
D|-5--5-5-5-0-0-0-0--5--5-5-5-0-0-0-0-|

Verse:
G|---------------------------------------------------------|
D|---------------------------------------------------------| X2
A|-----------3------------3--------------11111111-33333333-|
D|-5-5-5-000----5-5-5-000----5-5-5-3-3-3-------------------|
(Rejected since day one, my name is bastard son...)

Pre Chorus:
G|------------------------------------------------------------|
D|------------------------------------------------------------|
A|-3----3-6--5-3-1----1-5--3-1--3----3-6--5-3-1----1-5--3-1---|
D|----5-------------3--------------5-------------3----------5-|
(I'm sick and im twisted, i'm broken you can't fix it...)

Chorus:
G|------------------------------------------------------------------------|
D|------------------------------------------------------------------------| X2
A|------------------------------11111111--3-3-3-3-------------------------|
D|-55555555--00000000--11111111-------------------5-5-5-5-0-0-0-0-1-1-1-1-|
(Into the river below i'm running from the inferno...)

Fill:
G|------------------------------------|
D|------------------------------------|
A|------------------------------------|
D|-5--5-5-5-0-0-0-0--5--5-5-5-0-0-0-0-|
[ Tab from: http://www.guitartabs.cc/tabs/b/billy_talent/river_below_btab.html ]
Verse:
G|---------------------------------------------------------|
D|---------------------------------------------------------| X2
A|-----------3------------3--------------11111111-33333333-|
D|-5-5-5-000----5-5-5-000----5-5-5-3-3-3-------------------|
(contraption made of parts, nuts and bolts create them...)

Pre Chorus:
G|------------------------------------------------------------|
D|------------------------------------------------------------|
A|-3----3-6--5-3-1----1-5--3-1--3----3-6--5-3-1----1-5--3-1---|
D|----5-------------3--------------5-------------3----------5-|
(I'm sick and im twisted, i'm broken you can't fix it...)

Chorus:
G|---------------------------------------|---------------------------------|
D|---------------------------------------|---------------------------------| X2
A|------------------------------11111111-|-3-3-3-3-------------------------|
D|-55555555--00000000--11111111----------|---------5-5-5-5-0-0-0-0-1-1-1-1-|
(Into the river below i'm running from the inferno...)

Fill:
G|------------------------------------|
D|------------------------------------| X2
A|------------------------------------|
D|-5--5-5-5-0-0-0-0--5--5-5-5-0-0-0-0-|
(INTO THE RIVER BELOW!)

Chorus:
G|------------------------------------------------------------------------|
D|------------------------------------------------------------------------|
A|------------------------------11111111--3-3-3-3-------------------------|
D|-55555555--00000000--11111111-------------------5-5-5-5-0-0-0-0-1-1-1-1-|
(Into the river below i'm running from the inferno...)


G|---------------------------------------|---------------------------------|
D|---------------------------------------|---------------------------------| X4
A|------------------------------11111111-|-3-3-3-3-------------------------|
D|-55555555--00000000--11111111----------|---------5-5-5-5-0-0-0-0-1-1-1-1-|
(Into the river below i'm running from the inferno...)

Fill:
G|------------------|
D|------------------| 
A|------------------|
D|-5--5-5-5-0-0-0-0-|

Thats all folks if you want to tell me what i did good 
or bad just email me at dm_rick@hotmail.com

[www.desperate-measures.tk]

===============================================================================
Comments